  0
SECTION
  2
HEADER
  9
$ACADVER
  1
AC1012
  9
$DWGCODEPAGE
  3
ansi_932
  9
$INSBASE
 10
0.0
 20
0.0
 30
0.0
  9
$EXTMIN
 10
0.0
 20
0.0
 30
0.0
  9
$EXTMAX
 10
210.0
 20
297.0
 30
0.0
  9
$LIMMIN
 10
0.0
 20
0.0
  9
$LIMMAX
 10
210.0
 20
297.0
  9
$ORTHOMODE
 70
     0
  9
$REGENMODE
 70
     1
  9
$FILLMODE
 70
     1
  9
$QTEXTMODE
 70
     0
  9
$MIRRTEXT
 70
     1
  9
$DRAGMODE
 70
     2
  9
$LTSCALE
 40
1.0
  9
$OSMODE
 70
    37
  9
$ATTMODE
 70
     1
  9
$TEXTSIZE
 40
2.5
  9
$TRACEWID
 40
1.0
  9
$TEXTSTYLE
  7
STANDARD
  9
$CLAYER
  8
0
  9
$CELTYPE
  6
BYLAYER
  9
$CECOLOR
 62
   256
  9
$CELTSCALE
 40
1.0
  9
$DELOBJ
 70
     1
  9
$DISPSILH
 70
     0
  9
$DIMSCALE
 40
1.0
  9
$DIMASZ
 40
2.5
  9
$DIMEXO
 40
0.625
  9
$DIMDLI
 40
3.75
  9
$DIMRND
 40
0.0
  9
$DIMDLE
 40
0.0
  9
$DIMEXE
 40
1.25
  9
$DIMTP
 40
0.0
  9
$DIMTM
 40
0.0
  9
$DIMTXT
 40
2.5
  9
$DIMCEN
 40
2.5
  9
$DIMTSZ
 40
0.0
  9
$DIMTOL
 70
     0
  9
$DIMLIM
 70
     0
  9
$DIMTIH
 70
     0
  9
$DIMTOH
 70
     0
  9
$DIMSE1
 70
     0
  9
$DIMSE2
 70
     0
  9
$DIMTAD
 70
     1
  9
$DIMZIN
 70
     8
  9
$DIMBLK
  1

  9
$DIMASO
 70
     1
  9
$DIMSHO
 70
     1
  9
$DIMPOST
  1

  9
$DIMAPOST
  1

  9
$DIMALT
 70
     0
  9
$DIMALTD
 70
     3
  9
$DIMALTF
 40
0.0393700787
  9
$DIMLFAC
 40
1.0
  9
$DIMTOFL
 70
     1
  9
$DIMTVP
 40
0.0
  9
$DIMTIX
 70
     0
  9
$DIMSOXD
 70
     0
  9
$DIMSAH
 70
     0
  9
$DIMBLK1
  1

  9
$DIMBLK2
  1

  9
$DIMSTYLE
  2
ISO-25
  9
$DIMCLRD
 70
     0
  9
$DIMCLRE
 70
     0
  9
$DIMCLRT
 70
     0
  9
$DIMTFAC
 40
1.0
  9
$DIMGAP
 40
0.625
  9
$DIMJUST
 70
     0
  9
$DIMSD1
 70
     0
  9
$DIMSD2
 70
     0
  9
$DIMTOLJ
 70
     0
  9
$DIMTZIN
 70
     8
  9
$DIMALTZ
 70
     0
  9
$DIMALTTZ
 70
     0
  9
$DIMFIT
 70
     3
  9
$DIMUPT
 70
     0
  9
$DIMUNIT
 70
     2
  9
$DIMDEC
 70
     2
  9
$DIMTDEC
 70
     2
  9
$DIMALTU
 70
     2
  9
$DIMALTTD
 70
     3
  9
$DIMTXSTY
  7
STANDARD
  9
$DIMAUNIT
 70
     0
  9
$LUNITS
 70
     2
  9
$LUPREC
 70
     4
  9
$SKETCHINC
 40
1.0
  9
$FILLETRAD
 40
10.0
  9
$AUNITS
 70
     0
  9
$AUPREC
 70
     0
  9
$MENU
  1
.
  9
$ELEVATION
 40
0.0
  9
$PELEVATION
 40
0.0
  9
$THICKNESS
 40
0.0
  9
$LIMCHECK
 70
     0
  9
$CHAMFERA
 40
10.0
  9
$CHAMFERB
 40
10.0
  9
$CHAMFERC
 40
20.0
  9
$CHAMFERD
 40
0.0
  9
$SKPOLY
 70
     0
  9
$TDCREATE
 40
2456981.471045625
  9
$TDUPDATE
 40
2456981.471045637
  9
$TDINDWG
 40
0.0000000116
  9
$TDUSRTIMER
 40
0.0000000116
  9
$USRTIMER
 70
     1
  9
$ANGBASE
 50
0.0
  9
$ANGDIR
 70
     0
  9
$PDMODE
 70
     0
  9
$PDSIZE
 40
0.0
  9
$PLINEWID
 40
0.0
  9
$COORDS
 70
     1
  9
$SPLFRAME
 70
     0
  9
$SPLINETYPE
 70
     6
  9
$SPLINESEGS
 70
     8
  9
$ATTDIA
 70
     0
  9
$ATTREQ
 70
     1
  9
$HANDLING
 70
     1
  9
$HANDSEED
  5
1AC
  9
$SURFTAB1
 70
     6
  9
$SURFTAB2
 70
     6
  9
$SURFTYPE
 70
     6
  9
$SURFU
 70
     6
  9
$SURFV
 70
     6
  9
$UCSNAME
  2

  9
$UCSORG
 10
0.0
 20
0.0
 30
0.0
  9
$UCSXDIR
 10
1.0
 20
0.0
 30
0.0
  9
$UCSYDIR
 10
0.0
 20
1.0
 30
0.0
  9
$PUCSNAME
  2

  9
$PUCSORG
 10
0.0
 20
0.0
 30
0.0
  9
$PUCSXDIR
 10
1.0
 20
0.0
 30
0.0
  9
$PUCSYDIR
 10
0.0
 20
1.0
 30
0.0
  9
$USERI1
 70
     0
  9
$USERI2
 70
     0
  9
$USERI3
 70
     0
  9
$USERI4
 70
     0
  9
$USERI5
 70
     0
  9
$USERR1
 40
0.0
  9
$USERR2
 40
0.0
  9
$USERR3
 40
0.0
  9
$USERR4
 40
0.0
  9
$USERR5
 40
0.0
  9
$WORLDVIEW
 70
     1
  9
$SHADEDGE
 70
     3
  9
$SHADEDIF
 70
    70
  9
$TILEMODE
 70
     1
  9
$MAXACTVP
 70
    64
  9
$PINSBASE
 10
0.0
 20
0.0
 30
0.0
  9
$PLIMCHECK
 70
     0
  9
$PEXTMIN
 10
0.0
 20
0.0
 30
0.0
  9
$PEXTMAX
 10
210.0
 20
297.0
 30
0.0
  9
$PLIMMIN
 10
0.0
 20
0.0
  9
$PLIMMAX
 10
210.0
 20
297.0
  9
$UNITMODE
 70
     0
  9
$VISRETAIN
 70
     1
  9
$PLINEGEN
 70
     0
  9
$PSLTSCALE
 70
     1
  9
$TREEDEPTH
 70
  3020
  9
$PICKSTYLE
 70
     1
  9
$CMLSTYLE
  2
STANDARD
  9
$CMLJUST
 70
     0
  9
$CMLSCALE
 40
20.0
  9
$SAVEIMAGES
 70
     1
  0
ENDSEC
  0
SECTION
  2
CLASSES
  0
CLASS
  1
ACDBDICTIONARYWDFLT
  2
AcDbDictionaryWithDefault
  3
ObjectDBX Classes
 90
    32768
280
     0
281
     0
  0
CLASS
  1
VISUALSTYLE
  2
AcDbVisualStyle
  3
ObjectDBX Classes
 90
     4095
280
     0
281
     0
  0
CLASS
  1
SCALE
  2
AcDbScale
  3
ObjectDBX Classes
 90
     1153
280
     0
281
     0
  0
CLASS
  1
DICTIONARYVAR
  2
AcDbDictionaryVar
  3
ObjectDBX Classes
 90
        0
280
     0
281
     0
  0
CLASS
  1
XRECORD
  2
AcDbXrecord
  3
AutoCAD 2000
 90
    32768
280
     0
281
     0
  0
CLASS
  1
LWPOLYLINE
  2
AcDbPolyline
  3
AutoCAD 2000
 90
    32768
280
     0
281
     1
  0
CLASS
  1
HATCH
  2
AcDbHatch
  3
AutoCAD 2000
 90
    32768
280
     0
281
     1
  0
CLASS
  1
ACDBPLACEHOLDER
  2
AcDbPlaceHolder
  3
ObjectDBX Classes
 90
        0
280
     0
281
     0
  0
CLASS
  1
LAYOUT
  2
AcDbLayout
  3
ObjectDBX Classes
 90
        0
280
     0
281
     0
  0
ENDSEC
  0
SECTION
  2
TABLES
  0
TABLE
  2
VPORT
  5
8
330
0
100
AcDbSymbolTable
 70
     1
  0
VPORT
  5
29
330
8
100
AcDbSymbolTableRecord
100
AcDbViewportTableRecord
  2
*ACTIVE
 70
     0
 10
0.0
 20
0.0
 11
1.0
 21
1.0
 12
344.1869158879
 22
148.5
 13
0.0
 23
0.0
 14
10.0
 24
10.0
 15
10.0
 25
10.0
 16
0.0
 26
0.0
 36
1.0
 17
0.0
 27
0.0
 37
0.0
 40
297.0
 41
1.9729729729
 42
50.0
 43
0.0
 44
0.0
 50
0.0
 51
0.0
 71
     0
 72
   100
 73
     1
 74
     3
 75
     0
 76
     0
 77
     0
 78
     0
  0
ENDTAB
  0
TABLE
  2
LTYPE
  5
5
330
0
100
AcDbSymbolTable
 70
     2
  0
LTYPE
  5
14
330
5
100
AcDbSymbolTableRecord
100
AcDbLinetypeTableRecord
  2
BYBLOCK
 70
     0
  3

 72
    65
 73
     0
 40
0.0
  0
LTYPE
  5
15
330
5
100
AcDbSymbolTableRecord
100
AcDbLinetypeTableRecord
  2
BYLAYER
 70
     0
  3

 72
    65
 73
     0
 40
0.0
  0
LTYPE
  5
16
330
5
100
AcDbSymbolTableRecord
100
AcDbLinetypeTableRecord
  2
CONTINUOUS
 70
     0
  3
Solid line
 72
    65
 73
     0
 40
0.0
  0
LTYPE
  5
11A
330
5
100
AcDbSymbolTableRecord
100
AcDbLinetypeTableRecord
  2
CENTER2
 70
     0
  3
Center (.5x) ___ _ ___ _ ___ _ ___ _ ___ _ ___
 72
    65
 73
     4
 40
28.575
 49
19.05
 74
     4
 75
     0
340
0
 46
0.0
 50
0.0
 44
0.0
 45
0.0
 49
-3.175
 74
     4
 75
     0
340
0
 46
0.0
 50
0.0
 44
0.0
 45
0.0
 49
3.175
 74
     4
 75
     0
340
0
 46
0.0
 50
0.0
 44
0.0
 45
0.0
 49
-3.175
 74
     4
 75
     0
340
0
 46
0.0
 50
0.0
 44
0.0
 45
0.0
  0
ENDTAB
  0
TABLE
  2
LAYER
  5
2
330
0
100
AcDbSymbolTable
 70
     4
  0
LAYER
  5
10
330
2
100
AcDbSymbolTableRecord
100
AcDbLayerTableRecord
  2
0
 70
     0
 62
     7
  6
CONTINUOUS
  0
LAYER
  5
3B
330
2
100
AcDbSymbolTableRecord
100
AcDbLayerTableRecord
  2
DEFAULT
 70
     0
 62
     7
  6
CONTINUOUS
  0
LAYER
  5
3E
330
2
100
AcDbSymbolTableRecord
100
AcDbLayerTableRecord
  2
DV3_デフォルト
 70
     0
 62
     7
  6
CONTINUOUS
  0
LAYER
  5
124
330
2
100
AcDbSymbolTableRecord
100
AcDbLayerTableRecord
  2
ﾃﾞﾌｫﾙﾄ
 70
     0
 62
     7
  6
CONTINUOUS
  0
ENDTAB
  0
TABLE
  2
STYLE
  5
3
330
0
100
AcDbSymbolTable
 70
     3
  0
STYLE
  5
11
330
3
100
AcDbSymbolTableRecord
100
AcDbTextStyleTableRecord
  2
STANDARD
 70
     0
 40
0.0
 41
1.0
 50
0.0
 71
     0
 42
2.5
  3
txt
  4

  0
STYLE
  5
14E
330
3
100
AcDbSymbolTableRecord
100
AcDbTextStyleTableRecord
  2
SEACAD_SEANSI_TTF
 70
     0
 40
0.0
 41
1.0
 50
0.0
 71
     0
 42
0.2
  3
seansi.ttf
  4

  0
STYLE
  5
16E
330
3
100
AcDbSymbolTableRecord
100
AcDbTextStyleTableRecord
  2
SEACAD_SEMECA1_TTF
 70
     0
 40
0.0
 41
1.0
 50
0.0
 71
     0
 42
0.2
  3
semeca1.ttf
  4

  0
ENDTAB
  0
TABLE
  2
VIEW
  5
6
330
0
100
AcDbSymbolTable
 70
     0
  0
ENDTAB
  0
TABLE
  2
UCS
  5
7
330
0
100
AcDbSymbolTable
 70
     0
  0
ENDTAB
  0
TABLE
  2
APPID
  5
9
330
0
100
AcDbSymbolTable
 70
     1
  0
APPID
  5
12
330
9
100
AcDbSymbolTableRecord
100
AcDbRegAppTableRecord
  2
ACAD
 70
     0
  0
ENDTAB
  0
TABLE
  2
DIMSTYLE
  5
A
330
0
100
AcDbSymbolTable
 70
     1
  0
DIMSTYLE
105
27
330
A
100
AcDbSymbolTableRecord
100
AcDbDimStyleTableRecord
  2
ISO-25
 70
     0
  3

  4

  5

  6

  7

 40
1.0
 41
2.5
 42
0.625
 43
3.75
 44
1.25
 45
0.0
 46
0.0
 47
0.0
 48
0.0
140
2.5
141
2.5
142
0.0
143
0.0393700787
144
1.0
145
0.0
146
1.0
147
0.625
 71
     0
 72
     0
 73
     0
 74
     0
 75
     0
 76
     0
 77
     1
 78
     8
170
     0
171
     3
172
     1
173
     0
174
     0
175
     0
176
     0
177
     0
178
     0
270
     2
271
     2
272
     2
273
     2
274
     3
340
11
275
     0
280
     0
281
     0
282
     0
283
     0
284
     8
285
     0
286
     0
287
     3
288
     0
  0
ENDTAB
  0
TABLE
  2
BLOCK_RECORD
  5
1
330
0
100
AcDbSymbolTable
 70
     7
  0
BLOCK_RECORD
  5
1F
330
1
100
AcDbSymbolTableRecord
100
AcDbBlockTableRecord
  2
*MODEL_SPACE
  0
BLOCK_RECORD
  5
1B
330
1
100
AcDbSymbolTableRecord
100
AcDbBlockTableRecord
  2
*PAPER_SPACE
  0
BLOCK_RECORD
  5
3C
330
1
100
AcDbSymbolTableRecord
100
AcDbBlockTableRecord
  2
SE
  0
BLOCK_RECORD
  5
125
330
1
100
AcDbSymbolTableRecord
100
AcDbBlockTableRecord
  2
GDIMGGROUP
  0
BLOCK_RECORD
  5
152
330
1
100
AcDbSymbolTableRecord
100
AcDbBlockTableRecord
  2
GDIMGGROUP1
  0
BLOCK_RECORD
  5
15C
330
1
100
AcDbSymbolTableRecord
100
AcDbBlockTableRecord
  2
GDIMGGROUP2
  0
BLOCK_RECORD
  5
166
330
1
100
AcDbSymbolTableRecord
100
AcDbBlockTableRecord
  2
GDIMGGROUP3
  0
BLOCK_RECORD
  5
172
330
1
100
AcDbSymbolTableRecord
100
AcDbBlockTableRecord
  2
GDIMGGROUP4
  0
ENDTAB
  0
ENDSEC
  0
SECTION
  2
BLOCKS
  0
BLOCK
  5
20
330
1F
100
AcDbEntity
  8
0
100
AcDbBlockBegin
  2
*MODEL_SPACE
 70
     0
 10
0.0
 20
0.0
 30
0.0
  3
*MODEL_SPACE
  1

  0
ENDBLK
  5
21
330
1F
100
AcDbEntity
  8
0
100
AcDbBlockEnd
  0
BLOCK
  5
1C
330
1B
100
AcDbEntity
 67
     1
  8
0
100
AcDbBlockBegin
  2
*PAPER_SPACE
 70
     0
 10
0.0
 20
0.0
 30
0.0
  3
*PAPER_SPACE
  1

  0
ENDBLK
  5
1D
330
1B
100
AcDbEntity
 67
     1
  8
0
100
AcDbBlockEnd
  0
BLOCK
  5
122
330
3C
100
AcDbEntity
  8
0
100
AcDbBlockBegin
  2
SE
 70
     0
 10
0.0
 20
0.0
 30
0.0
  3
SE
  1

  0
LINE
  5
3F
330
3C
100
AcDbEntity
  8
DV3_デフォルト
  6
CONTINUOUS
 62
     7
100
AcDbLine
 10
82.3241553752
 20
125.3187167234
 30
0.0
 11
83.0313860439
 21
124.7991944238
 31
0.0
  0
LINE
  5
40
330
3C
100
AcDbEntity
  8
DV3_デフォルト
  6
CONTINUOUS
 62
     7
100
AcDbLine
 10
82.6020258437
 20
125.3989492493
 30
0.0
 11
83.2959228519
 21
124.8892216805
 31
0.0
  0
ELLIPSE
  5
41
330
3C
100
AcDbEntity
  8
DV3_デフォルト
  6
CONTINUOUS
 62
     7
100
AcDbEllipse
 10
82.7946724008
 20
125.115257569
 30
0.0
 11
0.675000000000002
 21
-2.775557561562891E-14
 31
0.0
210
0.0
220
0.0
230
1.0
 40
0.4999949922
 41
3.134221131465139
 42
5.070693441973863
  0
ELLIPSE
  5
42
330
3C
100
AcDbEntity
  8
DV3_デフォルト
  6
CONTINUOUS
 62
     7
100
AcDbEllipse
 10
82.7946724008
 20
125.115257569
 30
0.0
 11
-0.675000000000002
 21
3.469446951953614E-14
 31
0.0
210
0.0
220
0.0
230
1.0
 40
0.4999949922
 41
2.407730444257163
 42
3.03814137936593
  0
LINE
  5
43
330
3C
100
AcDbEntity
  8
DV3_デフォルト
  6
CONTINUOUS
 62
     7
100
AcDbLine
 10
83.0313860438
 20
124.7991944239
 30
0.0
 11
83.0313860438
 21
125.0835469225
 31
0.0
  0
LINE
  5
44
330
3C
100
AcDbEntity
  8
DV3_デフォルト
  6
CONTINUOUS
 62
     7
100
AcDbLine
 10
82.293349515
 20
161.6278163458
 30
0.0
 11
82.9909404954
 21
161.115364969
 31
0.0
  0
LINE
  5
45
330
3C
100
AcDbEntity
  8
DV3_デフォルト
  6
CONTINUOUS
 62
     7
100
AcDbLine
 10
82.5578574711
 20
161.7178666005
 30
0.0
 11
83.2603661861
 21
161.2018026485
 31
0.0
  0
ELLIPSE
  5
46
330
3C
100
AcDbEntity
  8
DV3_デフォルト
  6
CONTINUOUS
 62
     7
100
AcDbEllipse
 10
82.7946724008
 20
161.4018160933
 30
0.0
 11
0.674999999999995
 21
-5.551115123125786E-14
 31
0.0
210
0.0
220
0.0
230
1.0
 40
0.5000050078
 41
2.407890685278271
 42
3.228267844408202
  0
ELLIPSE
  5
47
330
3C
100
AcDbEntity
  8
DV3_デフォルト
  6
CONTINUOUS
 62
     7
100
AcDbEllipse
 10
82.7946724008
 20
161.4018160933
 30
0.0
 11
-0.675000000000002
 21
4.510281037539698E-14
 31
0.0
210
0.0
220
0.0
230
1.0
 40
0.5000050078
 41
3.185973271437908
 42
5.070853676754839
  0
LINE
  5
48
330
3C
100
AcDbEntity
  8
DV3_デフォルト
  6
CONTINUOUS
 62
     7
100
AcDbLine
 10
82.5578574711
 20
161.7178666006
 30
0.0
 11
82.5578585106
 21
161.4335076423
 31
0.0
  0
ELLIPSE
  5
49
330
3C
100
AcDbEntity
  8
DV3_デフォルト
  6
CONTINUOUS
 62
     7
100
AcDbEllipse
 10
97.1946724008
 20
161.8347129416
 30
0.0
 11
1.000000002384288
 21
-1.040834085586085E-14
 31
0.0
210
0.0
220
0.0
230
1.0
 40
0.5000050554
 41
3.091058864220341
 42
6.283185307179586
  0
ELLIPSE
  5
4A
330
3C
100
AcDbEntity
  8
DV3_デフォルト
  6
CONTINUOUS
 62
     7
100
AcDbEllipse
 10
97.1946724008
 20
161.8347129416
 30
0.0
 11
1.000000002384288
 21
-1.040834085586085E-14
 31
0.0
210
0.0
220
0.0
230
1.0
 40
0.5000050554
 41
0.0
 42
0.0505337893691792
  0
ARC
  5
4B
330
3C
100
AcDbEntity
  8
DV3_デフォルト
  6
CONTINUOUS
 62
     7
100
AcDbCircle
 10
97.0527356639
 20
148.3102220391
 30
0.0
 40
13.85676456786942
100
AcDbArc
 50
86.7820918746
 51
87.9408716537
  0
ELLIPSE
  5
4C
330
3C
100
AcDbEntity
  8
DV3_デフォルト
  6
CONTINUOUS
 62
     7
100
AcDbEllipse
 10
97.8345456731
 20
151.8690857837
 30
0.0
 11
0.1192590572376695
 21
11.98232768287206
 31
0.0
210
0.0
220
0.0
230
1.0
 40
0.0172353032
 41
0.5069991924868662
 42
0.5403815846561068
  0
ARC
  5
4D
330
3C
100
AcDbEntity
  8
DV3_デフォルト
  6
CONTINUOUS
 62
     7
100
AcDbCircle
 10
97.0606963362
 20
148.5101844493
 30
0.0
 40
13.85676450792308
100
AcDbArc
 50
86.7820918746
 51
87.9408716537
  0
SPLINE
  5
4E
330
3C
100
AcDbEntity
  8
DV3_デフォルト
  6
CONTINUOUS
 62
     7
100
AcDbSpline
210
0.0
220
0.0
230
1.0
 70
     8
 71
     3
 72
    20
 73
    16
 74
     0
 42
0.0000000521285064
 43
0.0000000001
 40
0.0
 40
0.0
 40
0.0
 40
0.0
 40
0.2137444315573367
 40
0.2137444315573367
 40
0.2137444315573367
 40
0.4286117530380567
 40
0.4286117530380567
 40
0.4286117530380567
 40
0.6433699458012424
 40
0.6433699458012424
 40
0.6433699458012424
 40
0.8580793715253078
 40
0.8580793715253078
 40
0.8580793715253078
 40
1.0
 40
1.0
 40
1.0
 40
1.0
 10
97.4017973942418
 20
162.439578469699
 30
0.0
 10
97.4014431352549
 20
162.4311411637738
 30
0.0
 10
97.4041384704595
 20
162.4224774739783
 30
0.0
 10
97.40966495003501
 20
162.4142974238414
 30
0.0
 10
97.41522038156452
 20
162.4060745203054
 30
0.0
 10
97.42379065486281
 20
162.398114214099
 30
0.0
 10
97.43466659160651
 20
162.39107664685
 30
0.0
 10
97.44553711953272
 20
162.3840425795217
 30
0.0
 10
97.4590108749972
 20
162.3777362936717
 30
0.0
 10
97.4739714446251
 20
162.372680125706
 30
0.0
 10
97.48892882169221
 20
162.3676250367182
 30
0.0
 10
97.5057845916325
 20
162.3636801161874
 30
0.0
 10
97.52314324567863
 20
162.3611709917559
 30
0.0
 10
97.53470811639173
 20
162.3594993356714
 30
0.0
 10
97.54666882403251
 20
162.3584296820661
 30
0.0
 10
97.55858143599991
 20
162.3580013550599
 30
0.0
  0
ELLIPSE
  5
4F
330
3C
100
AcDbEntity
  8
DV3_デフォルト
  6
CONTINUOUS
 62
     7
100
AcDbEllipse
 10
97.3946327891
 20
151.8734640759
 30
0.0
 11
0.1194124445384817
 21
11.99773908211071
 31
0.0
210
0.0
220
0.0
230
0.9999999999999998
 40
0.0172353031
 41
0.4703243145565412
 42
0.4936817148890899
  0
ELLIPSE
  5
50
330
3C
100
AcDbEntity
  8
DV3_デフォルト
  6
CONTINUOUS
 62
     7
100
AcDbEllipse
 10
97.2074094772
 20
152.1953942571
 30
0.0
 11
-11.97343655237483
 21
0.4766726167989253
 31
0.0
210
0.0
220
0.0
230
1.0
 40
0.8658509613
 41
4.730154399224662
 42
4.763536791393415
  0
ELLIPSE
  5
51
330
3C
100
AcDbEntity
  8
DV3_デフォルト
  6
CONTINUOUS
 62
     7
100
AcDbEllipse
 10
96.9947120123
 20
151.8774444494
 30
0.0
 11
0.1194124445458508
 21
11.9977390851549
 31
0.0
210
0.0
220
0.0
230
1.0
 40
0.0172353031
 41
0.4703243145176647
 42
0.4936817148469933
  0
SPLINE
  5
52
330
3C
100
AcDbEntity
  8
DV3_デフォルト
  6
CONTINUOUS
 62
     7
100
AcDbSpline
210
0.0
220
0.0
230
1.0
 70
     8
 71
     3
 72
    20
 73
    16
 74
     0
 42
0.0000000513326345
 43
0.0000000001
 40
0.0
 40
0.0
 40
0.0
 40
0.0
 40
0.2137915819336825
 40
0.2137915819336825
 40
0.2137915819336825
 40
0.428707875407319
 40
0.428707875407319
 40
0.428707875407319
 40
0.6435150282884345
 40
0.6435150282884345
 40
0.6435150282884345
 40
0.8582734605647971
 40
0.8582734605647971
 40
0.8582734605647971
 40
1.0
 40
1.0
 40
1.0
 40
1.0
 10
96.8387240378073
 20
162.3651660326408
 30
0.0
 10
96.8565272186852
 20
162.3654533153199
 30
0.0
 10
96.87463655011453
 20
162.3671925941608
 30
0.0
 10
96.89156784526392
 20
162.3702425141633
 30
0.0
 10
96.9085879642251
 20
162.3733084344491
 30
0.0
 10
96.92488562706869
 20
162.3777836554767
 30
0.0
 10
96.9391092302165
 20
162.3832977984866
 30
0.0
 10
96.95332576059612
 20
162.3888091995574
 30
0.0
 10
96.96586246829708
 20
162.395510519023
 30
0.0
 10
96.97568098124229
 20
162.4028465032468
 30
0.0
 10
96.98549740155299
 20
162.4101809239414
 30
0.0
 10
96.99286753135381
 20
162.4183518742809
 30
0.0
 10
96.99718320379682
 20
162.4266829019257
 30
0.0
 10
97.0000539077131
 20
162.4322245443933
 30
0.0
 10
97.00163765441732
 20
162.437920100965
 30
0.0
 10
97.00187661746811
 20
162.4435588461328
 30
0.0
  0
ELLIPSE
  5
53
330
3C
100
AcDbEntity
  8
DV3_デフォルト
  6
CONTINUOUS
 62
     7
100
AcDbEllipse
 10
97.1986527268
 20
151.9754357718
 30
0.0
 11
-11.98883629041558
 21
0.4772856337908089
 31
0.0
210
0.0
220
0.0
230
0.9999999999999999
 40
0.8658509539
 41
4.77685426139683
 42
4.800211662066749
  0
ELLIPSE
  5
54
330
3C
100
AcDbEntity
  8
DV3_デフォルト
  6
CONTINUOUS
 62
     7
100
AcDbEllipse
 10
96.5547991284
 20
151.8818229911
 30
0.0
 11
0.1192590572241734
 21
11.98232768062627
 31
0.0
210
0.0
220
0.0
230
1.0
 40
0.0172353032
 41
0.5069991925342475
 42
0.5403815847069116
  0
ELLIPSE
  5
55
330
3C
100
AcDbEntity
  8
DV3_デフォルト
  6
CONTINUOUS
 62
     7
100
AcDbEllipse
 10
97.1906920695
 20
151.7754730544
 30
0.0
 11
-11.98883646498959
 21
0.4772857348071899
 31
0.0
210
0.0
220
0.0
230
0.9999999999999998
 40
0.8658509666
 41
4.776854269493059
 42
4.800211669817598
  0
SPLINE
  5
56
330
3C
100
AcDbEntity
  8
DV3_デフォルト
  6
CONTINUOUS
 62
     7
100
AcDbSpline
210
0.0
220
0.0
230
1.0
 70
     8
 71
     3
 72
    20
 73
    16
 74
     0
 42
0.0000000514481063
 43
0.0000000001
 40
0.0
 40
0.0
 40
0.0
 40
0.0
 40
0.213744431557404
 40
0.213744431557404
 40
0.213744431557404
 40
0.4286117530381285
 40
0.4286117530381285
 40
0.4286117530381285
 40
0.6433699458013189
 40
0.6433699458013189
 40
0.6433699458013189
 40
0.8580793715253859
 40
0.8580793715253859
 40
0.8580793715253859
 40
1.0
 40
1.0
 40
1.0
 40
1.0
 10
96.98754740718732
 20
162.0836265078379
 30
0.0
 10
96.9879016661743
 20
162.0929894562548
 30
0.0
 10
96.9852063309696
 20
162.1024326703072
 30
0.0
 10
96.97967985139411
 20
162.1111821648476
 30
0.0
 10
96.97412441986461
 20
162.1199774959753
 30
0.0
 10
96.96555414656632
 20
162.1283136204649
 30
0.0
 10
96.9546782098227
 20
162.1354991783797
 30
0.0
 10
96.94380768189642
 20
162.1426811627752
 30
0.0
 10
96.93033392643191
 20
162.1489118465371
 30
0.0
 10
96.91537335680403
 20
162.1536751709602
 30
0.0
 10
96.900415979737
 20
162.1584374788978
 30
0.0
 10
96.88356020979663
 20
162.1618644103999
 30
0.0
 10
96.86620155575062
 20
162.1636732820595
 30
0.0
 10
96.85463668503752
 20
162.1648784081497
 30
0.0
 10
96.84267597739662
 20
162.1653947772291
 30
0.0
 10
96.8307633654292
 20
162.1652036224769
 30
0.0
  0
ELLIPSE
  5
57
330
3C
100
AcDbEntity
  8
DV3_デフォルト
  6
CONTINUOUS
 62
     7
100
AcDbEllipse
 10
96.9947120122
 20
151.8774447395
 30
0.0
 11
0.1194124442007033
 21
11.99773879158989
 31
0.0
210
0.0
220
0.0
230
0.9999999999999999
 40
0.0172353033
 41
0.553699063431544
 42
0.5770564640901431
  0
ELLIPSE
  5
58
330
3C
100
AcDbEntity
  8
DV3_デフォルト
  6
CONTINUOUS
 62
     7
100
AcDbEllipse
 10
97.1819353243
 20
151.5555145202
 30
0.0
 11
-11.97343654945112
 21
0.4766726155436002
 31
0.0
210
0.0
220
0.0
230
1.0
 40
0.8658509611
 41
4.730154399122477
 42
4.763536791299487
  0
ELLIPSE
  5
59
330
3C
100
AcDbEntity
  8
DV3_デフォルト
  6
CONTINUOUS
 62
     7
100
AcDbEllipse
 10
97.394632789
 20
151.8734643558
 30
0.0
 11
0.1194124441673828
 21
11.99773879896144
 31
0.0
210
0.0
220
0.0
230
1.0
 40
0.0172353033
 41
0.5536990632604716
 42
0.577056463909787
  0
SPLINE
  5
5A
330
3C
100
AcDbEntity
  8
DV3_デフォルト
  6
CONTINUOUS
 62
     7
100
AcDbSpline
210
0.0
220
0.0
230
1.0
 70
     8
 71
     3
 72
    20
 73
    16
 74
     0
 42
0.0000000506708857
 43
0.0000000001
 40
0.0
 40
0.0
 40
0.0
 40
0.0
 40
0.2137915819337173
 40
0.2137915819337173
 40
0.2137915819337173
 40
0.4287078754074078
 40
0.4287078754074078
 40
0.4287078754074078
 40
0.6435150282885327
 40
0.6435150282885327
 40
0.6435150282885327
 40
0.8582734605648843
 40
0.8582734605648843
 40
0.8582734605648843
 40
1.0
 40
1.0
 40
1.0
 40
1.0
 10
97.55062076362181
 20
162.158038944896
 30
0.0
 10
97.5328175827439
 20
162.1586773711042
 30
0.0
 10
97.51470825131462
 20
162.1577176168003
 30
0.0
 10
97.49777695616521
 20
162.1552370762209
 30
0.0
 10
97.480756837204
 20
162.1527435223979
 30
0.0
 10
97.46445917436041
 20
162.1486439876225
 30
0.0
 10
97.45023557121263
 20
162.1432776433017
 30
0.0
 10
97.43601904083299
 20
162.1379139674264
 30
0.0
 10
97.42348233313203
 20
162.1311367887974
 30
0.0
 10
97.41366382018681
 20
162.1235076600966
 30
0.0
 10
97.4038473998762
 20
162.1158801574034
 30
0.0
 10
97.39647727007531
 20
162.1071908648454
 30
0.0
 10
97.39216159763231
 20
162.0981592082432
 30
0.0
 10
97.38929089371601
 20
162.0921515206068
 30
0.0
 10
97.38770714701181
 20
162.0859034313846
 30
0.0
 10
97.38746818396099
 20
162.0796461314041
 30
0.0
  0
LINE
  5
5B
330
3C
100
AcDbEntity
  8
DV3_デフォルト
  6
CONTINUOUS
 62
     7
100
AcDbLine
 10
96.9875474072
 20
162.0836265079
 30
0.0
 11
96.9875474072
 21
161.9335623168
 31
0.0
  0
LINE
  5
5C
330
3C
100
AcDbEntity
  8
DV3_デフォルト
  6
CONTINUOUS
 62
     7
100
AcDbLine
 10
96.5587794646
 20
162.3578378194
 30
0.0
 11
96.5587794646
 21
162.2008694947
 31
0.0
  0
LINE
  5
5D
330
3C
100
AcDbEntity
  8
DV3_デフォルト
  6
CONTINUOUS
 62
     7
100
AcDbLine
 10
97.0074490888
 20
162.5734180709
 30
0.0
 11
97.0074490888
 21
162.4164497463
 31
0.0
  0
LINE
  5
5E
330
3C
100
AcDbEntity
  8
DV3_デフォルト
  6
CONTINUOUS
 62
     7
100
AcDbLine
 10
97.4017973943
 20
162.4395784697
 30
0.0
 11
97.4017973943
 21
162.272495668
 31
0.0
  0
LINE
  5
5F
330
3C
100
AcDbEntity
  8
DV3_デフォルト
  6
CONTINUOUS
 62
     7
100
AcDbLine
 10
96.557076825
 20
162.1581012584
 30
0.0
 11
96.5587794646
 21
162.2008694947
 31
0.0
  0
LINE
  5
60
330
3C
100
AcDbEntity
  8
DV3_デフォルト
  6
CONTINUOUS
 62
     7
100
AcDbLine
 10
96.5587794646
 20
162.2008694947
 30
0.0
 11
96.8387240379
 21
162.1980832309
 31
0.0
  0
ELLIPSE
  5
61
330
3C
100
AcDbEntity
  8
DV3_デフォルト
  6
CONTINUOUS
 62
     7
100
AcDbEllipse
 10
96.8418797494
 20
162.2780830538
 30
0.0
 11
-0.1600291457890466
 21
3.469446951953615E-15
 31
0.0
210
0.0
220
0.0
230
1.0
 40
0.5000050554
 41
1.551075443273068
 42
3.121507547220836
  0
LINE
  5
62
330
3C
100
AcDbEntity
  8
DV3_デフォルト
  6
CONTINUOUS
 62
     7
100
AcDbLine
 10
97.0018766175
 20
162.2764760444
 30
0.0
 11
97.0074490888
 21
162.4164497463
 31
0.0
  0
LINE
  5
63
330
3C
100
AcDbEntity
  8
DV3_デフォルト
  6
CONTINUOUS
 62
     7
100
AcDbLine
 10
97.0074490888
 20
162.4164497463
 30
0.0
 11
97.4017973943
 21
162.4125248321
 31
0.0
  0
ELLIPSE
  5
64
330
3C
100
AcDbEntity
  8
DV3_デフォルト
  6
CONTINUOUS
 62
     7
100
AcDbEllipse
 10
97.5617662785
 20
162.2709037929
 30
0.0
 11
0.1600005623866793
 21
-6.938893903907230E-15
 31
0.0
210
0.0
220
0.0
230
1.0
 40
0.5000050554
 41
3.121693173550764
 42
4.692482470540742
  0
LINE
  5
65
330
3C
100
AcDbEntity
  8
DV3_デフォルト
  6
CONTINUOUS
 62
     7
100
AcDbLine
 10
97.558581436
 20
162.1909185533
 30
0.0
 11
97.8322411994
 21
162.1881948417
 31
0.0
  0
LINE
  5
66
330
3C
100
AcDbEntity
  8
DV3_デフォルト
  6
CONTINUOUS
 62
     7
100
AcDbLine
 10
97.8946724008
 20
161.4450028231
 30
0.0
 11
97.8946724008
 21
161.4776379082
 31
0.0
  0
LINE
  5
67
330
3C
100
AcDbEntity
  8
DV3_デフォルト
  6
CONTINUOUS
 62
     7
100
AcDbLine
 10
96.4946724008
 20
161.4776379082
 30
0.0
 11
96.4946724008
 21
161.4450028231
 31
0.0
  0
LINE
  5
68
330
3C
100
AcDbEntity
  8
DV3_デフォルト
  6
CONTINUOUS
 62
     7
100
AcDbLine
 10
98.1933958429
 20
161.8599693392
 30
0.0
 11
98.1678870978
 21
162.1121499675
 31
0.0
  0
LINE
  5
69
330
3C
100
AcDbEntity
  8
DV3_デフォルト
  6
CONTINUOUS
 62
     7
100
AcDbLine
 10
96.2214577037
 20
162.1121499675
 30
0.0
 11
96.1959489586
 21
161.8599693392
 31
0.0
  0
SPLINE
  5
6A
330
3C
100
AcDbEntity
  8
DV3_デフォルト
  6
CONTINUOUS
 62
     7
100
AcDbSpline
210
0.0
220
0.0
230
1.0
 70
     8
 71
     3
 72
    21
 73
    17
 74
     0
 42
0.0000000053798906
 43
0.0000000001
 40
0.0
 40
0.0
 40
0.0
 40
0.0
 40
0.0308208481829113
 40
0.0996118955294901
 40
0.1695130841721459
 40
0.2438448894185595
 40
0.3239521695529815
 40
0.4080297298442317
 40
0.4925684258004923
 40
0.5762945955963027
 40
0.6593787623701581
 40
0.7422689062801618
 40
0.8254139461202205
 40
0.9092485784817385
 40
0.9900734682231063
 40
1.0
 40
1.0
 40
1.0
 40
1.0
 10
98.1638575283336
 20
162.113361188259
 30
0.0
 10
98.16305479850232
 20
162.1312322453987
 30
0.0
 10
98.16046020340161
 20
162.1804647179041
 30
0.0
 10
98.12433897408032
 20
162.2664855962382
 30
0.0
 10
98.06153058981232
 20
162.3588960524773
 30
0.0
 10
97.97265952637233
 20
162.4424163640549
 30
0.0
 10
97.85911790331761
 20
162.5157105411924
 30
0.0
 10
97.72171753079942
 20
162.5765774252903
 30
0.0
 10
97.56604263162791
 20
162.6221419952042
 30
0.0
 10
97.39905168382332
 20
162.6509335708315
 30
0.0
 10
97.22648600019382
 20
162.6626046430938
 30
0.0
 10
97.05340078985012
 20
162.6572313754926
 30
0.0
 10
96.8839693227766
 20
162.634665446797
 30
0.0
 10
96.72742310917509
 20
162.5964964695191
 30
0.0
 10
96.62298250246131
 20
162.5568170085932
 30
0.0
 10
96.57677964103323
 20
162.5349858431715
 30
0.0
 10
96.57090955404321
 20
162.5321979656574
 30
0.0
  0
SPLINE
  5
6B
330
3C
100
AcDbEntity
  8
DV3_デフォルト
  6
CONTINUOUS
 62
     7
100
AcDbSpline
210
0.0
220
0.0
230
1.0
 70
     8
 71
     3
 72
    13
 73
     9
 74
     0
 42
0.0000000173995352
 43
0.0000000001
 40
0.0
 40
0.0
 40
0.0
 40
0.0
 40
0.1310497260208306
 40
0.3829286935202458
 40
0.5977394698588021
 40
0.797578242770315
 40
0.98893222795033
 40
1.0
 40
1.0
 40
1.0
 40
1.0
 10
96.57090955404321
 20
162.5321979656574
 30
0.0
 10
96.54441503588373
 20
162.5188164549278
 30
0.0
 10
96.47903027994903
 20
162.4850216465731
 30
0.0
 10
96.38237256766111
 20
162.4147757971138
 30
0.0
 10
96.29831125683042
 20
162.3223103947965
 30
0.0
 10
96.24655863604481
 20
162.2248515400188
 30
0.0
 10
96.22107819111892
 20
162.1500107226263
 30
0.0
 10
96.2222441626375
 20
162.1146873147762
 30
0.0
 10
96.2223200351324
 20
162.1124460688429
 30
0.0
  0
LINE
  5
6C
330
3C
100
AcDbEntity
  8
DV3_デフォルト
  6
CONTINUOUS
 62
     7
100
AcDbLine
 10
132.8946724008
 20
164.0602464147
 30
0.0
 11
132.8946724008
 21
122.4602464147
 31
0.0
  0
LINE
  5
6D
330
3C
100
AcDbEntity
  8
DV3_デフォルト
  6
CONTINUOUS
 62
     7
100
AcDbLine
 10
132.6946724008
 20
164.2602464147
 30
0.0
 11
132.6946724008
 21
122.2602464147
 31
0.0
  0
LINE
  5
6E
330
3C
100
AcDbEntity
  8
DV3_デフォルト
  6
CONTINUOUS
 62
     7
100
AcDbLine
 10
103.8946724008
 20
164.2602464147
 30
0.0
 11
103.8946724008
 21
122.2602464147
 31
0.0
  0
LINE
  5
6F
330
3C
100
AcDbEntity
  8
DV3_デフォルト
  6
CONTINUOUS
 62
     7
100
AcDbLine
 10
103.6946724008
 20
164.0602464147
 30
0.0
 11
103.6946724008
 21
122.4602464147
 31
0.0
  0
LINE
  5
70
330
3C
100
AcDbEntity
  8
DV3_デフォルト
  6
CONTINUOUS
 62
     7
100
AcDbLine
 10
132.6946724008
 20
122.2602464147
 30
0.0
 11
132.8946724008
 21
122.4602464147
 31
0.0
  0
LINE
  5
71
330
3C
100
AcDbEntity
  8
DV3_デフォルト
  6
CONTINUOUS
 62
     7
100
AcDbLine
 10
132.8946724008
 20
164.0602464147
 30
0.0
 11
132.6946724008
 21
164.2602464147
 31
0.0
  0
LINE
  5
72
330
3C
100
AcDbEntity
  8
DV3_デフォルト
  6
CONTINUOUS
 62
     7
100
AcDbLine
 10
103.8946724008
 20
122.2602464147
 30
0.0
 11
132.6946724008
 21
122.2602464147
 31
0.0
  0
LINE
  5
73
330
3C
100
AcDbEntity
  8
DV3_デフォルト
  6
CONTINUOUS
 62
     7
100
AcDbLine
 10
132.6946724008
 20
164.2602464147
 30
0.0
 11
103.8946724008
 21
164.2602464147
 31
0.0
  0
LINE
  5
74
330
3C
100
AcDbEntity
  8
DV3_デフォルト
  6
CONTINUOUS
 62
     7
100
AcDbLine
 10
103.8946724008
 20
164.2602464147
 30
0.0
 11
103.6946724008
 21
164.0602464147
 31
0.0
  0
LINE
  5
75
330
3C
100
AcDbEntity
  8
DV3_デフォルト
  6
CONTINUOUS
 62
     7
100
AcDbLine
 10
103.6946724008
 20
122.4602464147
 30
0.0
 11
103.8946724008
 21
122.2602464147
 31
0.0
  0
LINE
  5
76
330
3C
100
AcDbEntity
  8
DV3_デフォルト
  6
CONTINUOUS
 62
     7
100
AcDbLine
 10
135.8531390726
 20
143.1614700274
 30
0.0
 11
134.654158344
 21
143.6531870652
 31
0.0
  0
LINE
  5
77
330
3C
100
AcDbEntity
  8
DV3_デフォルト
  6
CONTINUOUS
 62
     7
100
AcDbLine
 10
135.7364877507
 20
142.863444774
 30
0.0
 11
134.5340968844
 21
143.3565603521
 31
0.0
  0
ELLIPSE
  5
78
330
3C
100
AcDbEntity
  8
DV3_デフォルト
  6
CONTINUOUS
 62
     7
100
AcDbEllipse
 10
128.3946724008
 20
122.1424503348
 30
0.0
 11
0.7500000000000006
 21
1.400518583146814E-31
 31
0.0
210
0.0
220
0.0
230
1.0
 40
0.1736481777
 41
0.234678936104037
 42
0.3112479038668547
  0
ELLIPSE
  5
79
330
3C
100
AcDbEntity
  8
DV3_デフォルト
  6
CONTINUOUS
 62
     7
100
AcDbEllipse
 10
128.3946724008
 20
122.1424503348
 30
0.0
 11
0.7500000000000006
 21
1.400518583146814E-31
 31
0.0
210
0.0
220
0.0
230
1.0
 40
0.1736481777
 41
-3.462679422144686
 42
-3.328134548456601
  0
ELLIPSE
  5
7A
330
3C
100
AcDbEntity
  8
DV3_デフォルト
  6
CONTINUOUS
 62
     7
100
AcDbEllipse
 10
128.3946724008
 20
122.1424503348
 30
0.0
 11
0.7500000000000006
 21
1.400518583146814E-31
 31
0.0
210
0.0
220
0.0
230
1.0
 40
0.1736481777
 41
3.682696416236292
 42
6.086714524113566
  0
ELLIPSE
  5
7B
330
3C
100
AcDbEntity
  8
DV3_デフォルト
  6
CONTINUOUS
 62
     7
100
AcDbEllipse
 10
128.3946724008
 20
122.1424503348
 30
0.0
 11
1.000000002384287
 21
1.368663537482503E-31
 31
0.0
210
0.0
220
0.0
230
1.0
 40
0.1736481777
 41
0.0
 42
0.7455290125650565
  0
ELLIPSE
  5
7C
330
3C
100
AcDbEntity
  8
DV3_デフォルト
  6
CONTINUOUS
 62
     7
100
AcDbEllipse
 10
128.3946724008
 20
122.1424503348
 30
0.0
 11
1.000000002384287
 21
1.368663537482503E-31
 31
0.0
210
0.0
220
0.0
230
1.0
 40
0.1736481777
 41
2.396063641024695
 42
6.283185307179586
  0
LINE
  5
7D
330
3C
100
AcDbEntity
  8
DV3_デフォルト
  6
CONTINUOUS
 62
     7
100
AcDbLine
 10
127.6946724008
 20
122.2602464147
 30
0.0
 11
127.6946724008
 21
122.1916907225
 31
0.0
  0
LINE
  5
7E
330
3C
100
AcDbEntity
  8
DV3_デフォルト
  6
CONTINUOUS
 62
     7
100
AcDbLine
 10
129.0946724008
 20
122.1916907225
 30
0.0
 11
129.0946724008
 21
122.2602464147
 31
0.0
  0
SPLINE
  5
7F
330
3C
100
AcDbEntity
  8
DV3_デフォルト
  6
CONTINUOUS
 62
     7
100
AcDbSpline
210
0.0
220
0.0
230
1.0
 70
     8
 71
     3
 72
     8
 73
     4
 74
     0
 42
0.0000006111484849
 43
0.0000000001
 40
0.0
 40
0.0
 40
0.0
 40
0.0
 40
1.0
 40
1.0
 40
1.0
 40
1.0
 10
129.0981892935733
 20
122.178160635431
 30
0.0
 10
129.0995097943677
 20
122.1787138602016
 30
0.0
 10
129.098526724692
 20
122.1836556542196
 30
0.0
 10
129.0952400845461
 20
122.1929860174851
 30
0.0
  0
SPLINE
  5
80
330
3C
100
AcDbEntity
  8
DV3_デフォルト
  6
CONTINUOUS
 62
     7
100
AcDbSpline
210
0.0
220
0.0
230
1.0
 70
     8
 71
     3
 72
     9
 73
     5
 74
     0
 42
0.0000006889517557
 43
0.0000000001
 40
0.0
 40
0.0
 40
0.0
 40
0.0
 40
0.1542280407793724
 40
1.0
 40
1.0
 40
1.0
 40
1.0
 10
127.6938234712901
 20
122.1893436691148
 30
0.0
 10
127.6940017711099
 20
122.1884346662307
 30
0.0
 10
127.6953963207101
 20
122.1836503572492
 30
0.0
 10
127.6893373513158
 20
122.1781013601468
 30
0.0
 10
127.6896740438701
 20
122.1779063691841
 30
0.0
  0
LINE
  5
81
330
3C
100
AcDbEntity
  8
DV3_デフォルト
  6
CONTINUOUS
 62
     7
100
AcDbLine
 10
127.3947913956
 20
122.1397715318
 30
0.0
 11
127.4203297064
 21
121.8523361926
 31
0.0
  0
LINE
  5
82
330
3C
100
AcDbEntity
  8
DV3_デフォルト
  6
CONTINUOUS
 62
     7
100
AcDbLine
 10
129.3690150951
 20
121.8523361926
 30
0.0
 11
129.3945534059
 21
122.1397715318
 31
0.0
  0
SPLINE
  5
83
330
3C
100
AcDbEntity
  8
DV3_デフォルト
  6
CONTINUOUS
 62
     7
100
AcDbSpline
210
0.0
220
0.0
230
1.0
 70
     8
 71
     3
 72
    13
 73
     9
 74
     0
 42
0.0000000264321822
 43
0.0000000001
 40
0.0
 40
0.0
 40
0.0
 40
0.0
 40
0.055144735909026
 40
0.221622987608854
 40
0.37723215345643
 40
0.5424161576781069
 40
0.7416571260999535
 40
1.0
 40
1.0
 40
1.0
 40
1.0
 10
127.4233726593563
 20
121.8529540470064
 30
0.0
 10
127.4232053622446
 20
121.843550983642
 30
0.0
 10
127.4227867349899
 20
121.8112288637265
 30
0.0
 10
127.4484664241887
 20
121.7559724198766
 30
0.0
 10
127.4899239806541
 20
121.703552421781
 30
0.0
 10
127.5401386422626
 20
121.6652789585506
 30
0.0
 10
127.6002485299552
 20
121.6345194418331
 30
0.0
 10
127.6448356170063
 20
121.6198090007145
 30
0.0
 10
127.6746785787676
 20
121.6106359143444
 30
0.0
  0
SPLINE
  5
84
330
3C
100
AcDbEntity
  8
DV3_デフォルト
  6
CONTINUOUS
 62
     7
100
AcDbSpline
210
0.0
220
0.0
230
1.0
 70
     8
 71
     3
 72
    17
 73
    13
 74
     0
 42
0.0000000102331678
 43
0.0000000001
 40
0.0
 40
0.0
 40
0.0
 40
0.0
 40
0.0855132290132906
 40
0.2152424810033653
 40
0.3462746818781448
 40
0.4801712958530852
 40
0.6208464780984738
 40
0.7440488350605481
 40
0.8273309275344073
 40
0.9002923818919797
 40
0.9732480920271174
 40
1.0
 40
1.0
 40
1.0
 40
1.0
 10
128.5218401418331
 20
121.5398815154198
 30
0.0
 10
128.5607303612971
 20
121.5409068799309
 30
0.0
 10
128.6438874592361
 20
121.5432555614817
 30
0.0
 10
128.7821638083085
 20
121.5535752414694
 30
0.0
 10
128.9217847623161
 20
121.569755120251
 30
0.0
 10
129.047734454502
 20
121.5919353391075
 30
0.0
 10
129.1507411416134
 20
121.6195788691751
 30
0.0
 10
129.2282918657117
 20
121.6521208149623
 30
0.0
 10
129.2912445132136
 20
121.6952330527304
 30
0.0
 10
129.3378442428078
 20
121.7503104474015
 30
0.0
 10
129.3658237464912
 20
121.8083759721705
 30
0.0
 10
129.3658296406632
 20
121.8421375924774
 30
0.0
 10
129.3657730889904
 20
121.8527379175185
 30
0.0
  0
ARC
  5
85
330
3C
100
AcDbEntity
  8
DV3_デフォルト
  6
CONTINUOUS
 62
     7
100
AcDbCircle
 10
128.381216301
 20
125.3921563456
 30
0.0
 40
3.854840649304526
100
AcDbArc
 50
263.1812440872
 51
272.090602811
  0
ARC
  5
86
330
3C
100
AcDbEntity
  8
DV3_デフォルト
  6
CONTINUOUS
 62
     7
100
AcDbCircle
 10
128.0648415703
 20
123.0235351643
 30
0.0
 40
1.465780150756721
100
AcDbArc
 50
254.5628534806
 51
264.467880896
  0
LINE
  5
87
330
3C
100
AcDbEntity
  8
DV3_デフォルト
  6
CONTINUOUS
 62
     7
100
AcDbLine
 10
103.1946724008
 20
164.058582758
 30
0.0
 11
103.1946724008
 21
122.458582758
 31
0.0
  0
LINE
  5
88
330
3C
100
AcDbEntity
  8
DV3_デフォルト
  6
CONTINUOUS
 62
     7
100
AcDbLine
 10
92.1946724008
 20
164.058582758
 30
0.0
 11
92.1946724008
 21
122.458582758
 31
0.0
  0
LINE
  5
89
330
3C
100
AcDbEntity
  8
DV3_デフォルト
  6
CONTINUOUS
 62
     7
100
AcDbLine
 10
102.9946724008
 20
164.258582758
 30
0.0
 11
102.9946724008
 21
143.508582758
 31
0.0
  0
LINE
  5
8A
330
3C
100
AcDbEntity
  8
DV3_デフォルト
  6
CONTINUOUS
 62
     7
100
AcDbLine
 10
102.9946724008
 20
143.008582758
 30
0.0
 11
102.9946724008
 21
122.258582758
 31
0.0
  0
LINE
  5
8B
330
3C
100
AcDbEntity
  8
DV3_デフォルト
  6
CONTINUOUS
 62
     7
100
AcDbLine
 10
103.1542732932
 20
143.1668971849
 30
0.0
 11
102.9946724008
 21
143.008582758
 31
0.0
  0
SPLINE
  5
8C
330
3C
100
AcDbEntity
  8
DV3_デフォルト
  6
CONTINUOUS
 62
     7
100
AcDbSpline
210
0.0
220
0.0
230
1.0
 70
     8
 71
     3
 72
    11
 73
     7
 74
     0
 42
0.0000000545339128
 43
0.0000000001
 40
0.0
 40
0.0
 40
0.0
 40
0.0
 40
0.1252727771079554
 40
0.1252727771079554
 40
0.1252727771079554
 40
1.0
 40
1.0
 40
1.0
 40
1.0
 10
103.1542732931479
 20
143.3502683310025
 30
0.0
 10
103.1543069807328
 20
143.3426110443716
 30
0.0
 10
103.1543364482628
 20
143.3349537380122
 30
0.0
 10
103.1543616956037
 20
143.3272964189009
 30
0.0
 10
103.1545379815289
 20
143.2738302900379
 30
0.0
 10
103.1545085118617
 20
143.2203630868863
 30
0.0
 10
103.1542732931479
 20
143.1668971848133
 30
0.0
  0
LINE
  5
8D
330
3C
100
AcDbEntity
  8
DV3_デフォルト
  6
CONTINUOUS
 62
     7
100
AcDbLine
 10
102.9946724008
 20
143.508582758
 30
0.0
 11
103.1542732932
 21
143.3502683311
 31
0.0
  0
LINE
  5
8E
330
3C
100
AcDbEntity
  8
DV3_デフォルト
  6
CONTINUOUS
 62
     7
100
AcDbLine
 10
92.3946724008
 20
164.258582758
 30
0.0
 11
92.3946724008
 21
143.508582758
 31
0.0
  0
LINE
  5
8F
330
3C
100
AcDbEntity
  8
DV3_デフォルト
  6
CONTINUOUS
 62
     7
100
AcDbLine
 10
92.3946724008
 20
143.008582758
 30
0.0
 11
92.3946724008
 21
122.258582758
 31
0.0
  0
LINE
  5
90
330
3C
100
AcDbEntity
  8
DV3_デフォルト
  6
CONTINUOUS
 62
     7
100
AcDbLine
 10
92.3946724008
 20
143.008582758
 30
0.0
 11
102.9946724008
 21
143.008582758
 31
0.0
  0
LINE
  5
91
330
3C
100
AcDbEntity
  8
DV3_デフォルト
  6
CONTINUOUS
 62
     7
100
AcDbLine
 10
92.2350715083
 20
143.3502683311
 30
0.0
 11
92.3946724008
 21
143.508582758
 31
0.0
  0
LINE
  5
92
330
3C
100
AcDbEntity
  8
DV3_デフォルト
  6
CONTINUOUS
 62
     7
100
AcDbLine
 10
92.3946724008
 20
143.508582758
 30
0.0
 11
102.9946724008
 21
143.508582758
 31
0.0
  0
SPLINE
  5
93
330
3C
100
AcDbEntity
  8
DV3_デフォルト
  6
CONTINUOUS
 62
     7
100
AcDbSpline
210
0.0
220
0.0
230
1.0
 70
     8
 71
     3
 72
    11
 73
     7
 74
     0
 42
0.0000000545339128
 43
0.0000000001
 40
0.0
 40
0.0
 40
0.0
 40
0.0
 40
0.8747272228920431
 40
0.8747272228920431
 40
0.8747272228920431
 40
1.0
 40
1.0
 40
1.0
 40
1.0
 10
92.23507150827992
 20
143.1668971848133
 30
0.0
 10
92.2348362895661
 20
143.2203630868863
 30
0.0
 10
92.23480681989898
 20
143.2738302900379
 30
0.0
 10
92.23498310582409
 20
143.3272964189009
 30
0.0
 10
92.23500835316511
 20
143.3349537380122
 30
0.0
 10
92.23503782069511
 20
143.3426110443716
 30
0.0
 10
92.23507150827992
 20
143.3502683310025
 30
0.0
  0
LINE
  5
94
330
3C
100
AcDbEntity
  8
DV3_デフォルト
  6
CONTINUOUS
 62
     7
100
AcDbLine
 10
92.2350715083
 20
143.3502683311
 30
0.0
 11
103.1542732932
 21
143.3502683311
 31
0.0
  0
LINE
  5
95
330
3C
100
AcDbEntity
  8
DV3_デフォルト
  6
CONTINUOUS
 62
     7
100
AcDbLine
 10
92.3946724008
 20
143.008582758
 30
0.0
 11
92.2350715083
 21
143.1668971849
 31
0.0
  0
LINE
  5
96
330
3C
100
AcDbEntity
  8
DV3_デフォルト
  6
CONTINUOUS
 62
     7
100
AcDbLine
 10
92.2350715083
 20
143.1668971849
 30
0.0
 11
103.1542732932
 21
143.1668971849
 31
0.0
  0
LINE
  5
97
330
3C
100
AcDbEntity
  8
DV3_デフォルト
  6
CONTINUOUS
 62
     7
100
AcDbLine
 10
103.1946724008
 20
123.108582758
 30
0.0
 11
103.6946724008
 21
123.108582758
 31
0.0
  0
LINE
  5
98
330
3C
100
AcDbEntity
  8
DV3_デフォルト
  6
CONTINUOUS
 62
     7
100
AcDbLine
 10
103.6946724008
 20
163.408582758
 30
0.0
 11
103.1946724008
 21
163.408582758
 31
0.0
  0
LINE
  5
99
330
3C
100
AcDbEntity
  8
DV3_デフォルト
  6
CONTINUOUS
 62
     7
100
AcDbLine
 10
91.6946724008
 20
123.108582758
 30
0.0
 11
92.1946724008
 21
123.108582758
 31
0.0
  0
LINE
  5
9A
330
3C
100
AcDbEntity
  8
DV3_デフォルト
  6
CONTINUOUS
 62
     7
100
AcDbLine
 10
92.1946724008
 20
163.408582758
 30
0.0
 11
91.6946724008
 21
163.408582758
 31
0.0
  0
LINE
  5
9B
330
3C
100
AcDbEntity
  8
DV3_デフォルト
  6
CONTINUOUS
 62
     7
100
AcDbLine
 10
102.9946724008
 20
122.258582758
 30
0.0
 11
103.1946724008
 21
122.458582758
 31
0.0
  0
LINE
  5
9C
330
3C
100
AcDbEntity
  8
DV3_デフォルト
  6
CONTINUOUS
 62
     7
100
AcDbLine
 10
103.1946724008
 20
164.058582758
 30
0.0
 11
102.9946724008
 21
164.258582758
 31
0.0
  0
LINE
  5
9D
330
3C
100
AcDbEntity
  8
DV3_デフォルト
  6
CONTINUOUS
 62
     7
100
AcDbLine
 10
92.3946724008
 20
122.258582758
 30
0.0
 11
102.9946724008
 21
122.258582758
 31
0.0
  0
LINE
  5
9E
330
3C
100
AcDbEntity
  8
DV3_デフォルト
  6
CONTINUOUS
 62
     7
100
AcDbLine
 10
102.9946724008
 20
164.258582758
 30
0.0
 11
92.3946724008
 21
164.258582758
 31
0.0
  0
LINE
  5
9F
330
3C
100
AcDbEntity
  8
DV3_デフォルト
  6
CONTINUOUS
 62
     7
100
AcDbLine
 10
92.3946724008
 20
164.258582758
 30
0.0
 11
92.1946724008
 21
164.058582758
 31
0.0
  0
LINE
  5
A0
330
3C
100
AcDbEntity
  8
DV3_デフォルト
  6
CONTINUOUS
 62
     7
100
AcDbLine
 10
92.1946724008
 20
122.458582758
 30
0.0
 11
92.3946724008
 21
122.258582758
 31
0.0
  0
LINE
  5
A1
330
3C
100
AcDbEntity
  8
DV3_デフォルト
  6
CONTINUOUS
 62
     7
100
AcDbLine
 10
137.9946724008
 20
163.508582758
 30
0.0
 11
137.9946724008
 21
123.008582758
 31
0.0
  0
LINE
  5
A2
330
3C
100
AcDbEntity
  8
DV3_デフォルト
  6
CONTINUOUS
 62
     7
100
AcDbLine
 10
138.1946724008
 20
158.058582758
 30
0.0
 11
138.1946724008
 21
128.458582758
 31
0.0
  0
LINE
  5
A3
330
3C
100
AcDbEntity
  8
DV3_デフォルト
  6
CONTINUOUS
 62
     7
100
AcDbLine
 10
139.2446724008
 20
155.258582758
 30
0.0
 11
139.2446724008
 21
131.258582758
 31
0.0
  0
LINE
  5
A4
330
3C
100
AcDbEntity
  8
DV3_デフォルト
  6
CONTINUOUS
 62
     7
100
AcDbLine
 10
139.9446724008
 20
155.958582758
 30
0.0
 11
139.9446724008
 21
130.558582758
 31
0.0
  0
LINE
  5
A5
330
3C
100
AcDbEntity
  8
DV3_デフォルト
  6
CONTINUOUS
 62
     7
100
AcDbLine
 10
141.4946724008
 20
155.958582758
 30
0.0
 11
141.4946724008
 21
130.558582758
 31
0.0
  0
LINE
  5
A6
330
3C
100
AcDbEntity
  8
DV3_デフォルト
  6
CONTINUOUS
 62
     7
100
AcDbLine
 10
142.1946724008
 20
155.258582758
 30
0.0
 11
142.1946724008
 21
131.258582758
 31
0.0
  0
LINE
  5
A7
330
3C
100
AcDbEntity
  8
DV3_デフォルト
  6
CONTINUOUS
 62
     7
100
AcDbLine
 10
133.3946724008
 20
163.808582758
 30
0.0
 11
133.3946724008
 21
122.708582758
 31
0.0
  0
LINE
  5
A8
330
3C
100
AcDbEntity
  8
DV3_デフォルト
  6
CONTINUOUS
 62
     7
100
AcDbLine
 10
133.5946724008
 20
164.008582758
 30
0.0
 11
133.5946724008
 21
122.508582758
 31
0.0
  0
LINE
  5
A9
330
3C
100
AcDbEntity
  8
DV3_デフォルト
  6
CONTINUOUS
 62
     7
100
AcDbLine
 10
137.4946724008
 20
164.008582758
 30
0.0
 11
137.4946724008
 21
122.508582758
 31
0.0
  0
CIRCLE
  5
AA
330
3C
100
AcDbEntity
  8
DV3_デフォルト
  6
CONTINUOUS
 62
     7
100
AcDbCircle
 10
135.1946724008
 20
143.258582758
 30
0.0
 40
0.6750000000000114
  0
ARC
  5
AB
330
3C
100
AcDbEntity
  8
DV3_デフォルト
  6
CONTINUOUS
 62
     7
100
AcDbCircle
 10
135.1946479882
 20
101.769272801
 30
0.0
 40
20.75029241842487
100
AcDbArc
 50
88.1357913469
 51
91.8639348769
  0
ARC
  5
AC
330
3C
100
AcDbEntity
  8
DV3_デフォルト
  6
CONTINUOUS
 62
     7
100
AcDbCircle
 10
135.1946479882
 20
184.7478927037
 30
0.0
 40
20.75029240714157
100
AcDbArc
 50
268.1360651221
 51
271.8642086542
  0
LINE
  5
AD
330
3C
100
AcDbEntity
  8
DV3_デフォルト
  6
CONTINUOUS
 62
     7
100
AcDbLine
 10
137.9946724008
 20
128.258582758
 30
0.0
 11
138.1946724008
 21
128.458582758
 31
0.0
  0
LINE
  5
AE
330
3C
100
AcDbEntity
  8
DV3_デフォルト
  6
CONTINUOUS
 62
     7
100
AcDbLine
 10
138.1946724008
 20
158.058582758
 30
0.0
 11
137.9946724008
 21
158.258582758
 31
0.0
  0
LINE
  5
AF
330
3C
100
AcDbEntity
  8
DV3_デフォルト
  6
CONTINUOUS
 62
     7
100
AcDbLine
 10
138.1946724008
 20
131.258582758
 30
0.0
 11
139.2446724008
 21
131.258582758
 31
0.0
  0
LINE
  5
B0
330
3C
100
AcDbEntity
  8
DV3_デフォルト
  6
CONTINUOUS
 62
     7
100
AcDbLine
 10
139.2446724008
 20
155.258582758
 30
0.0
 11
138.1946724008
 21
155.258582758
 31
0.0
  0
LINE
  5
B1
330
3C
100
AcDbEntity
  8
DV3_デフォルト
  6
CONTINUOUS
 62
     7
100
AcDbLine
 10
139.9446724008
 20
155.958582758
 30
0.0
 11
139.2446724008
 21
155.258582758
 31
0.0
  0
LINE
  5
B2
330
3C
100
AcDbEntity
  8
DV3_デフォルト
  6
CONTINUOUS
 62
     7
100
AcDbLine
 10
139.2446724008
 20
131.258582758
 30
0.0
 11
139.9446724008
 21
130.558582758
 31
0.0
  0
LINE
  5
B3
330
3C
100
AcDbEntity
  8
DV3_デフォルト
  6
CONTINUOUS
 62
     7
100
AcDbLine
 10
139.9446724008
 20
130.558582758
 30
0.0
 11
141.4946724008
 21
130.558582758
 31
0.0
  0
LINE
  5
B4
330
3C
100
AcDbEntity
  8
DV3_デフォルト
  6
CONTINUOUS
 62
     7
100
AcDbLine
 10
141.4946724008
 20
155.958582758
 30
0.0
 11
139.9446724008
 21
155.958582758
 31
0.0
  0
LINE
  5
B5
330
3C
100
AcDbEntity
  8
DV3_デフォルト
  6
CONTINUOUS
 62
     7
100
AcDbLine
 10
141.4946724008
 20
130.558582758
 30
0.0
 11
142.1946724008
 21
131.258582758
 31
0.0
  0
LINE
  5
B6
330
3C
100
AcDbEntity
  8
DV3_デフォルト
  6
CONTINUOUS
 62
     7
100
AcDbLine
 10
142.1946724008
 20
155.258582758
 30
0.0
 11
141.4946724008
 21
155.958582758
 31
0.0
  0
LINE
  5
B7
330
3C
100
AcDbEntity
  8
DV3_デフォルト
  6
CONTINUOUS
 62
     7
100
AcDbLine
 10
132.8946724008
 20
123.158582758
 30
0.0
 11
133.3946724008
 21
123.158582758
 31
0.0
  0
LINE
  5
B8
330
3C
100
AcDbEntity
  8
DV3_デフォルト
  6
CONTINUOUS
 62
     7
100
AcDbLine
 10
133.3946724008
 20
163.358582758
 30
0.0
 11
132.8946724008
 21
163.358582758
 31
0.0
  0
LINE
  5
B9
330
3C
100
AcDbEntity
  8
DV3_デフォルト
  6
CONTINUOUS
 62
     7
100
AcDbLine
 10
133.5946724008
 20
164.008582758
 30
0.0
 11
133.3946724008
 21
163.808582758
 31
0.0
  0
LINE
  5
BA
330
3C
100
AcDbEntity
  8
DV3_デフォルト
  6
CONTINUOUS
 62
     7
100
AcDbLine
 10
133.3946724008
 20
122.708582758
 30
0.0
 11
133.5946724008
 21
122.508582758
 31
0.0
  0
LINE
  5
BB
330
3C
100
AcDbEntity
  8
DV3_デフォルト
  6
CONTINUOUS
 62
     7
100
AcDbLine
 10
135.8696723992
 20
122.508582758
 30
0.0
 11
137.4946724008
 21
122.508582758
 31
0.0
  0
LINE
  5
BC
330
3C
100
AcDbEntity
  8
DV3_デフォルト
  6
CONTINUOUS
 62
     7
100
AcDbLine
 10
133.5946724008
 20
122.508582758
 30
0.0
 11
134.5279310605
 21
122.508582758
 31
0.0
  0
LINE
  5
BD
330
3C
100
AcDbEntity
  8
DV3_デフォルト
  6
CONTINUOUS
 62
     7
100
AcDbLine
 10
134.5279310623
 20
164.008582758
 30
0.0
 11
133.5946724008
 21
164.008582758
 31
0.0
  0
LINE
  5
BE
330
3C
100
AcDbEntity
  8
DV3_デフォルト
  6
CONTINUOUS
 62
     7
100
AcDbLine
 10
137.4946724008
 20
164.008582758
 30
0.0
 11
135.8696723962
 21
164.008582758
 31
0.0
  0
LINE
  5
BF
330
3C
100
AcDbEntity
  8
DV3_デフォルト
  6
CONTINUOUS
 62
     7
100
AcDbLine
 10
137.4946724008
 20
122.508582758
 30
0.0
 11
137.9946724008
 21
123.008582758
 31
0.0
  0
LINE
  5
C0
330
3C
100
AcDbEntity
  8
DV3_デフォルト
  6
CONTINUOUS
 62
     7
100
AcDbLine
 10
137.9946724008
 20
163.508582758
 30
0.0
 11
137.4946724008
 21
164.008582758
 31
0.0
  0
ARC
  5
C1
330
3C
100
AcDbEntity
  8
DV3_デフォルト
  6
CONTINUOUS
 62
     7
100
AcDbCircle
 10
135.1946724008
 20
143.258582758
 30
0.0
 40
0.8500000000000002
100
AcDbArc
 50
75.0
 51
15.0
  0
ELLIPSE
  5
C2
330
3C
100
AcDbEntity
  8
DV3_デフォルト
  6
CONTINUOUS
 62
     7
100
AcDbEllipse
 10
97.1946724008
 20
124.6822231209
 30
0.0
 11
-1.000000002384288
 21
-1.040834085586085E-14
 31
0.0
210
0.0
220
0.0
230
1.0
 40
0.4999949445
 41
3.091060227874966
 42
6.283185307179586
  0
ELLIPSE
  5
C3
330
3C
100
AcDbEntity
  8
DV3_デフォルト
  6
CONTINUOUS
 62
     7
100
AcDbEllipse
 10
97.1946724008
 20
124.6822231209
 30
0.0
 11
-1.000000002384288
 21
-1.040834085586085E-14
 31
0.0
210
0.0
220
0.0
230
1.0
 40
0.4999949445
 41
0.0000000000000076
 42
0.0505324257150998
  0
ELLIPSE
  5
C4
330
3C
100
AcDbEntity
  8
DV3_デフォルト
  6
CONTINUOUS
 62
     7
100
AcDbEllipse
 10
97.1906920747
 20
134.5415694436
 30
0.0
 11
11.98883590650495
 21
-0.4772952698420281
 31
0.0
210
0.0
220
0.0
230
1.0
 40
0.8658567903
 41
4.776855189680857
 42
4.80021259035131
  0
ELLIPSE
  5
C5
330
3C
100
AcDbEntity
  8
DV3_デフォルト
  6
CONTINUOUS
 62
     7
100
AcDbEllipse
 10
97.8345456731
 20
134.6351803324
 30
0.0
 11
-0.1192566458651858
 21
-11.98232770532796
 31
0.0
210
0.0
220
0.0
230
1.0
 40
0.0172354194
 41
0.5069875162997852
 42
0.5403699084714004
  0
ELLIPSE
  5
C6
330
3C
100
AcDbEntity
  8
DV3_デフォルト
  6
CONTINUOUS
 62
     7
100
AcDbEllipse
 10
97.1986527457
 20
134.7415278252
 30
0.0
 11
11.98883591500046
 21
-0.4772952772317576
 31
0.0
210
0.0
220
0.0
230
1.0
 40
0.8658567909
 41
4.776855190305347
 42
4.80021259095893
  0
SPLINE
  5
C7
330
3C
100
AcDbEntity
  8
DV3_デフォルト
  6
CONTINUOUS
 62
     7
100
AcDbSpline
210
0.0
220
0.0
230
1.0
 70
     8
 71
     3
 72
    20
 73
    16
 74
     0
 42
0.0000000514483835
 43
0.0000000001
 40
0.0
 40
0.0
 40
0.0
 40
0.0
 40
0.2137444315573367
 40
0.2137444315573367
 40
0.2137444315573367
 40
0.4286117530380567
 40
0.4286117530380567
 40
0.4286117530380567
 40
0.6433699458012424
 40
0.6433699458012424
 40
0.6433699458012424
 40
0.8580793715253078
 40
0.8580793715253078
 40
0.8580793715253078
 40
1.0
 40
1.0
 40
1.0
 40
1.0
 10
97.4017973942418
 20
124.4333030780836
 30
0.0
 10
97.4014431352549
 20
124.4239403065218
 30
0.0
 10
97.4041384704595
 20
124.4144972729175
 30
0.0
 10
97.40966495003501
 20
124.4057479476292
 30
0.0
 10
97.41522038156452
 20
124.3969527866402
 30
0.0
 10
97.42379065486281
 20
124.388616825654
 30
0.0
 10
97.43466659160651
 20
124.3814314110476
 30
0.0
 10
97.44553711953272
 20
124.3742495698893
 30
0.0
 10
97.4590108749972
 20
124.368019013141
 30
0.0
 10
97.4739714446251
 20
124.3632557889878
 30
0.0
 10
97.48892882169221
 20
124.3584935812987
 30
0.0
 10
97.5057845916325
 20
124.3550667260778
 30
0.0
 10
97.52314324567863
 20
124.3532579004365
 30
0.0
 10
97.53470811639173
 20
124.3520528050054
 30
0.0
 10
97.54666882403251
 20
124.3515364538267
 30
0.0
 10
97.55858143599991
 20
124.3517276130647
 30
0.0
  0
ELLIPSE
  5
C8
330
3C
100
AcDbEntity
  8
DV3_デフォルト
  6
CONTINUOUS
 62
     7
100
AcDbEllipse
 10
97.3946327891
 20
134.6395587802
 30
0.0
 11
-0.1194100299760012
 21
-11.99773910500758
 31
0.0
210
0.0
220
0.0
230
1.0
 40
0.0172354193
 41
0.5536873810226732
 42
0.5770447813522371
  0
ELLIPSE
  5
C9
330
3C
100
AcDbEntity
  8
DV3_デフォルト
  6
CONTINUOUS
 62
     7
100
AcDbEllipse
 10
97.2074094772
 20
134.9614821992
 30
0.0
 11
11.97343616340831
 21
-0.4766822388800711
 31
0.0
210
0.0
220
0.0
230
1.0
 40
0.8658567973
 41
4.730155327381418
 42
4.763537719566559
  0
ELLIPSE
  5
CA
330
3C
100
AcDbEntity
  8
DV3_デフォルト
  6
CONTINUOUS
 62
     7
100
AcDbEllipse
 10
96.9947120123
 20
134.6435390745
 30
0.0
 11
-0.1194100299733575
 21
-11.99773910339075
 31
0.0
210
0.0
220
0.0
230
0.9999999999999999
 40
0.0172354193
 41
0.5536873810372015
 42
0.5770447813685217
  0
SPLINE
  5
CB
330
3C
100
AcDbEntity
  8
DV3_デフォルト
  6
CONTINUOUS
 62
     7
100
AcDbSpline
210
0.0
220
0.0
230
1.0
 70
     8
 71
     3
 72
    20
 73
    16
 74
     0
 42
0.0000000506711397
 43
0.0000000001
 40
0.0
 40
0.0
 40
0.0
 40
0.0
 40
0.2137915819336825
 40
0.2137915819336825
 40
0.2137915819336825
 40
0.428707875407319
 40
0.428707875407319
 40
0.428707875407319
 40
0.6435150282884345
 40
0.6435150282884345
 40
0.6435150282884345
 40
0.8582734605647971
 40
0.8582734605647971
 40
0.8582734605647971
 40
1.0
 40
1.0
 40
1.0
 40
1.0
 10
96.8387240378073
 20
124.3588921457642
 30
0.0
 10
96.8565272186852
 20
124.3582537199866
 30
0.0
 10
96.87463655011453
 20
124.3592134443738
 30
0.0
 10
96.89156784526392
 20
124.3616939271168
 30
0.0
 10
96.9085879642251
 20
124.3641874228001
 30
0.0
 10
96.92488562706869
 20
124.3682868696115
 30
0.0
 10
96.9391092302165
 20
124.3736531034238
 30
0.0
 10
96.95332576059612
 20
124.3790166688455
 30
0.0
 10
96.96586246829708
 20
124.3857937114517
 30
0.0
 10
96.97568098124229
 20
124.3934226898312
 30
0.0
 10
96.98549740155299
 20
124.4010500422351
 30
0.0
 10
96.99286753135381
 20
124.4097391660694
 30
0.0
 10
96.99718320379682
 20
124.4187706494824
 30
0.0
 10
97.0000539077131
 20
124.4247782219165
 30
0.0
 10
97.00163765441732
 20
124.431026192241
 30
0.0
 10
97.00187661746811
 20
124.4372833740278
 30
0.0
  0
ARC
  5
CC
330
3C
100
AcDbEntity
  8
DV3_デフォルト
  6
CONTINUOUS
 62
     7
100
AcDbCircle
 10
97.3366054253
 20
138.2066158126
 30
0.0
 40
13.85667125561383
100
AcDbArc
 50
266.7820855565
 51
267.9408731415
  0
ELLIPSE
  5
CD
330
3C
100
AcDbEntity
  8
DV3_デフォルト
  6
CONTINUOUS
 62
     7
100
AcDbEllipse
 10
96.5547991284
 20
134.6479172781
 30
0.0
 11
-0.1192566458728811
 21
-11.98232770332991
 31
0.0
210
0.0
220
0.0
230
0.9999999999999998
 40
0.0172354194
 41
0.5069875163425999
 42
0.5403699085176179
  0
ARC
  5
CE
330
3C
100
AcDbEntity
  8
DV3_デフォルト
  6
CONTINUOUS
 62
     7
100
AcDbCircle
 10
97.3286447529
 20
138.0066574459
 30
0.0
 40
13.85667119568748
100
AcDbArc
 50
266.7820855565
 51
267.9408731415
  0
SPLINE
  5
CF
330
3C
100
AcDbEntity
  8
DV3_デフォルト
  6
CONTINUOUS
 62
     7
100
AcDbSpline
210
0.0
220
0.0
230
1.0
 70
     8
 71
     3
 72
    20
 73
    16
 74
     0
 42
0.000000052128795
 43
0.0000000001
 40
0.0
 40
0.0
 40
0.0
 40
0.0
 40
0.213744431557404
 40
0.213744431557404
 40
0.213744431557404
 40
0.4286117530381285
 40
0.4286117530381285
 40
0.4286117530381285
 40
0.6433699458013189
 40
0.6433699458013189
 40
0.6433699458013189
 40
0.8580793715253859
 40
0.8580793715253859
 40
0.8580793715253859
 40
1.0
 40
1.0
 40
1.0
 40
1.0
 10
96.98754740718732
 20
124.0773583141423
 30
0.0
 10
96.9879016661743
 20
124.085795436973
 30
0.0
 10
96.9852063309696
 20
124.0944589410659
 30
0.0
 10
96.97967985139411
 20
124.1026388181123
 30
0.0
 10
96.97412441986461
 20
124.110861547651
 30
0.0
 10
96.96555414656632
 20
124.1188216878208
 30
0.0
 10
96.9546782098227
 20
124.1258591107639
 30
0.0
 10
96.94380768189642
 20
124.132893033858
 30
0.0
 10
96.93033392643191
 20
124.1391991932039
 30
0.0
 10
96.91537335680403
 20
124.1442552628737
 30
0.0
 10
96.900415979737
 20
124.1493102535865
 30
0.0
 10
96.88356020979663
 20
124.1532551013277
 30
0.0
 10
96.86620155575062
 20
124.1557641844609
 30
0.0
 10
96.85463668503752
 20
124.1574358130311
 30
0.0
 10
96.84267597739662
 20
124.1585054524652
 30
0.0
 10
96.8307633654292
 20
124.1589337791612
 30
0.0
  0
ELLIPSE
  5
D0
330
3C
100
AcDbEntity
  8
DV3_デフォルト
  6
CONTINUOUS
 62
     7
100
AcDbEllipse
 10
96.9947120122
 20
134.6435387837
 30
0.0
 11
-0.1194100294701558
 21
-11.99773880975611
 31
0.0
210
0.0
220
0.0
230
1.0
 40
0.0172354195
 41
0.4703126438700337
 42
0.4936700445257264
  0
ELLIPSE
  5
D1
330
3C
100
AcDbEntity
  8
DV3_デフォルト
  6
CONTINUOUS
 62
     7
100
AcDbEllipse
 10
97.1819353243
 20
134.3216154017
 30
0.0
 11
11.97343616647439
 21
-0.4766822367630318
 31
0.0
210
0.0
220
0.0
230
1.0
 40
0.8658567975
 41
4.730155327234595
 42
4.763537719411342
  0
ELLIPSE
  5
D2
330
3C
100
AcDbEntity
  8
DV3_デフォルト
  6
CONTINUOUS
 62
     7
100
AcDbEllipse
 10
97.394632789
 20
134.6395585014
 30
0.0
 11
-0.1194100295403845
 21
-11.9977388235002
 31
0.0
210
0.0
220
0.0
230
0.9999999999999999
 40
0.0172354194
 41
0.4703126435922568
 42
0.4936700442325874
  0
SPLINE
  5
D3
330
3C
100
AcDbEntity
  8
DV3_デフォルト
  6
CONTINUOUS
 62
     7
100
AcDbSpline
210
0.0
220
0.0
230
1.0
 70
     8
 71
     3
 72
    20
 73
    16
 74
     0
 42
0.0000000513328983
 43
0.0000000001
 40
0.0
 40
0.0
 40
0.0
 40
0.0
 40
0.2137915819337173
 40
0.2137915819337173
 40
0.2137915819337173
 40
0.4287078754074078
 40
0.4287078754074078
 40
0.4287078754074078
 40
0.6435150282885327
 40
0.6435150282885327
 40
0.6435150282885327
 40
0.8582734605648843
 40
0.8582734605648843
 40
0.8582734605648843
 40
1.0
 40
1.0
 40
1.0
 40
1.0
 10
97.55062076362181
 20
124.1517692464616
 30
0.0
 10
97.5328175827439
 20
124.1514819571122
 30
0.0
 10
97.51470825131462
 20
124.1497427029335
 30
0.0
 10
97.49777695616521
 20
124.1466928369294
 30
0.0
 10
97.480756837204
 20
124.1436269709253
 30
0.0
 10
97.46445917436041
 20
124.1391518353292
 30
0.0
 10
97.45023557121263
 20
124.1336378018316
 30
0.0
 10
97.43601904083299
 20
124.1281265102187
 30
0.0
 10
97.42348233313203
 20
124.1214253272873
 30
0.0
 10
97.41366382018681
 20
124.1140894953606
 30
0.0
 10
97.4038473998762
 20
124.1067552269309
 30
0.0
 10
97.39647727007531
 20
124.098584448809
 30
0.0
 10
97.39216159763231
 20
124.0902535990762
 30
0.0
 10
97.38929089371601
 20
124.0847120749523
 30
0.0
 10
97.38770714701181
 20
124.0790166410027
 30
0.0
 10
97.38746818396099
 20
124.0733780181981
 30
0.0
  0
LINE
  5
D4
330
3C
100
AcDbEntity
  8
DV3_デフォルト
  6
CONTINUOUS
 62
     7
100
AcDbLine
 10
97.3818957128
 20
123.9435216922
 30
0.0
 11
97.3818957128
 21
124.1004910749
 31
0.0
  0
LINE
  5
D5
330
3C
100
AcDbEntity
  8
DV3_デフォルト
  6
CONTINUOUS
 62
     7
100
AcDbLine
 10
96.9875474072
 20
124.0773583142
 30
0.0
 11
96.9875474072
 21
124.2444422422
 31
0.0
  0
LINE
  5
D6
330
3C
100
AcDbEntity
  8
DV3_デフォルト
  6
CONTINUOUS
 62
     7
100
AcDbLine
 10
97.4017973943
 20
124.4333030781
 30
0.0
 11
97.4017973943
 21
124.5833645052
 31
0.0
  0
LINE
  5
D7
330
3C
100
AcDbEntity
  8
DV3_デフォルト
  6
CONTINUOUS
 62
     7
100
AcDbLine
 10
97.8305653369
 20
124.1590975844
 30
0.0
 11
97.8305653369
 21
124.3160669671
 31
0.0
  0
ELLIPSE
  5
D8
330
3C
100
AcDbEntity
  8
DV3_デフォルト
  6
CONTINUOUS
 62
     7
100
AcDbEllipse
 10
97.5474650521
 20
124.2388549694
 30
0.0
 11
0.1600291457890604
 21
5.299017836686045E-31
 31
0.0
210
0.0
220
0.0
230
1.0
 40
0.4999949445
 41
1.551075443272881
 42
3.121507547216519
  0
LINE
  5
D9
330
3C
100
AcDbEntity
  8
DV3_デフォルト
  6
CONTINUOUS
 62
     7
100
AcDbLine
 10
97.387468184
 20
124.2404619463
 30
0.0
 11
97.3818957128
 21
124.1004910749
 31
0.0
  0
LINE
  5
DA
330
3C
100
AcDbEntity
  8
DV3_デフォルト
  6
CONTINUOUS
 62
     7
100
AcDbLine
 10
97.3818957128
 20
124.1004910749
 30
0.0
 11
96.9875474072
 21
124.1044159097
 31
0.0
  0
ELLIPSE
  5
DB
330
3C
100
AcDbEntity
  8
DV3_デフォルト
  6
CONTINUOUS
 62
     7
100
AcDbEllipse
 10
96.8275785231
 20
124.2460340851
 30
0.0
 11
-0.1600005623867002
 21
-1.040834085586084E-14
 31
0.0
210
0.0
220
0.0
230
1.0
 40
0.4999949445
 41
3.121693173544152
 42
4.692482470540513
  0
LINE
  5
DC
330
3C
100
AcDbEntity
  8
DV3_デフォルト
  6
CONTINUOUS
 62
     7
100
AcDbLine
 10
96.8307633655
 20
124.3260177072
 30
0.0
 11
96.5571037688
 21
124.3287413621
 31
0.0
  0
LINE
  5
DD
330
3C
100
AcDbEntity
  8
DV3_デフォルト
  6
CONTINUOUS
 62
     7
100
AcDbLine
 10
97.8322678075
 20
124.3588300925
 30
0.0
 11
97.8305653369
 21
124.3160669671
 31
0.0
  0
LINE
  5
DE
330
3C
100
AcDbEntity
  8
DV3_デフォルト
  6
CONTINUOUS
 62
     7
100
AcDbLine
 10
97.8305653369
 20
124.3160669671
 30
0.0
 11
97.5506207637
 21
124.3188531745
 31
0.0
  0
LINE
  5
DF
330
3C
100
AcDbEntity
  8
DV3_デフォルト
  6
CONTINUOUS
 62
     7
100
AcDbLine
 10
96.4946724008
 20
125.0719358663
 30
0.0
 11
96.4946724008
 21
125.0392909337
 31
0.0
  0
LINE
  5
E0
330
3C
100
AcDbEntity
  8
DV3_デフォルト
  6
CONTINUOUS
 62
     7
100
AcDbLine
 10
97.8946724008
 20
125.0392909337
 30
0.0
 11
97.8946724008
 21
125.0719358663
 31
0.0
  0
SPLINE
  5
E1
330
3C
100
AcDbEntity
  8
DV3_デフォルト
  6
CONTINUOUS
 62
     7
100
AcDbSpline
210
0.0
220
0.0
230
1.0
 70
     8
 71
     3
 72
    10
 73
     6
 74
     0
 42
0.000000025742819
 43
0.0000000001
 40
0.0
 40
0.0
 40
0.0
 40
0.0
 40
0.3806706109727773
 40
0.7613461338347788
 40
1.0
 40
1.0
 40
1.0
 40
1.0
 10
96.70964651711242
 20
125.329548546335
 30
0.0
 10
96.65276077183951
 20
125.2959092599226
 30
0.0
 10
96.55802562980773
 20
125.2370776887619
 30
0.0
 10
96.49611320516301
 20
125.1323812369796
 30
0.0
 10
96.49299930677249
 20
125.0679689022981
 30
0.0
 10
96.49698296631351
 20
125.0435582702929
 30
0.0
  0
LINE
  5
E2
330
3C
100
AcDbEntity
  8
DV3_デフォルト
  6
CONTINUOUS
 62
     7
100
AcDbLine
 10
96.1959488897
 20
124.656967915
 30
0.0
 11
96.2214576366
 21
124.404785552
 31
0.0
  0
LINE
  5
E3
330
3C
100
AcDbEntity
  8
DV3_デフォルト
  6
CONTINUOUS
 62
     7
100
AcDbLine
 10
98.1678871649
 20
124.404785552
 30
0.0
 11
98.1933959118
 21
124.656967915
 31
0.0
  0
SPLINE
  5
E4
330
3C
100
AcDbEntity
  8
DV3_デフォルト
  6
CONTINUOUS
 62
     7
100
AcDbSpline
210
0.0
220
0.0
230
1.0
 70
     8
 71
     3
 72
    25
 73
    21
 74
     0
 42
0.0000000041138662
 43
0.0000000001
 40
0.0
 40
0.0
 40
0.0
 40
0.0
 40
0.0127906758542235
 40
0.0640239735211572
 40
0.1154688568457986
 40
0.1697737242623631
 40
0.2283338524796646
 40
0.2902905478465241
 40
0.3530834081284384
 40
0.4153182566374822
 40
0.4770219644343054
 40
0.5385075747409999
 40
0.6001283425873142
 40
0.6621718237506498
 40
0.7250892306369194
 40
0.7893648342376723
 40
0.8551862245201902
 40
0.9099326392876996
 40
0.961122512267086
 40
1.0
 40
1.0
 40
1.0
 40
1.0
 10
96.22442410166371
 20
124.4049050647124
 30
0.0
 10
96.22441576376991
 20
124.3949060864175
 30
0.0
 10
96.22456053788042
 20
124.3520347453798
 30
0.0
 10
96.25508549808242
 20
124.2710931543119
 30
0.0
 10
96.31235467758229
 20
124.1766022067711
 30
0.0
 10
96.39624658982952
 20
124.0910907260968
 30
0.0
 10
96.50447674368951
 20
124.0155817334374
 30
0.0
 10
96.63727787968071
 20
123.9518585374202
 30
0.0
 10
96.7897017891067
 20
123.902936387476
 30
0.0
 10
96.95488162610411
 20
123.8705991597328
 30
0.0
 10
97.12668200317762
 20
123.8553518664301
 30
0.0
 10
97.3001291936858
 20
123.8572075417683
 30
0.0
 10
97.4704555404323
 20
123.876096288876
 30
0.0
 10
97.63314732651979
 20
123.9119376314033
 30
0.0
 10
97.78411858471381
 20
123.9649194838257
 30
0.0
 10
97.91932229452041
 20
124.0357625486286
 30
0.0
 10
98.0276785434826
 20
124.121109421511
 30
0.0
 10
98.10491487478362
 20
124.2161794320556
 30
0.0
 10
98.1523895824151
 20
124.3112844496503
 30
0.0
 10
98.16107341685151
 20
124.3704480884942
 30
0.0
 10
98.16510533582051
 20
124.4006112868181
 30
0.0
  0
LINE
  5
E5
330
3C
100
AcDbEntity
  8
DV3_デフォルト
  6
CONTINUOUS
 62
     7
100
AcDbLine
 10
91.6946724008
 20
164.058582758
 30
0.0
 11
91.6946724008
 21
122.458582758
 31
0.0
  0
LINE
  5
E6
330
3C
100
AcDbEntity
  8
DV3_デフォルト
  6
CONTINUOUS
 62
     7
100
AcDbLine
 10
69.1946724008
 20
164.058582758
 30
0.0
 11
69.1946724008
 21
122.458582758
 31
0.0
  0
LINE
  5
E7
330
3C
100
AcDbEntity
  8
DV3_デフォルト
  6
CONTINUOUS
 62
     7
100
AcDbLine
 10
69.3946724008
 20
164.258582758
 30
0.0
 11
69.3946724008
 21
122.258582758
 31
0.0
  0
LINE
  5
E8
330
3C
100
AcDbEntity
  8
DV3_デフォルト
  6
CONTINUOUS
 62
     7
100
AcDbLine
 10
91.4946724008
 20
164.258582758
 30
0.0
 11
91.4946724008
 21
122.258582758
 31
0.0
  0
SPLINE
  5
E9
330
3C
100
AcDbEntity
  8
DV3_デフォルト
  6
CONTINUOUS
 62
     7
100
AcDbSpline
210
0.0
220
0.0
230
1.0
 70
    11
 71
     3
 72
    62
 73
    58
 74
     0
 42
0.000000003044515
 43
0.0000000001
 40
0.0
 40
0.0
 40
0.0
 40
0.0
 40
0.0536855741162951
 40
0.0536855741162951
 40
0.0536855741162951
 40
0.1073699677365359
 40
0.1073699677365359
 40
0.1073699677365359
 40
0.1610720663589824
 40
0.1610720663589824
 40
0.1610720663589824
 40
0.2147862626100637
 40
0.2147862626100637
 40
0.2147862626100637
 40
0.2684813606212014
 40
0.2684813606212014
 40
0.2684813606212014
 40
0.3221559737262844
 40
0.3221559737262844
 40
0.3221559737262844
 40
0.3758406897849847
 40
0.3758406897849847
 40
0.3758406897849847
 40
0.4295503210396331
 40
0.4295503210396331
 40
0.4295503210396331
 40
0.4832608022405132
 40
0.4832608022405132
 40
0.4832608022405132
 40
0.536946750150812
 40
0.536946750150812
 40
0.536946750150812
 40
0.5906210775316106
 40
0.5906210775316106
 40
0.5906210775316106
 40
0.6443148018091595
 40
0.6443148018091595
 40
0.6443148018091595
 40
0.698028702949308
 40
0.698028702949308
 40
0.698028702949308
 40
0.7517320597746495
 40
0.7517320597746495
 40
0.7517320597746495
 40
0.805410587434782
 40
0.805410587434782
 40
0.805410587434782
 40
0.8590887672304974
 40
0.8590887672304974
 40
0.8590887672304974
 40
0.9127916096582999
 40
0.9127916096582999
 40
0.9127916096582999
 40
0.9665056428301576
 40
0.9665056428301576
 40
0.9665056428301576
 40
1.0
 40
1.0
 40
1.0
 40
1.0
 10
82.11967240071533
 20
161.4451168152379
 30
0.0
 10
82.11967240071533
 20
161.4828802323117
 30
0.0
 10
82.13270881108501
 20
161.5207921293084
 30
0.0
 10
82.15770004717533
 20
161.5557697496681
 30
0.0
 10
82.18269097092093
 20
161.5907469328716
 30
0.0
 10
82.22032467084209
 20
161.6237597147149
 30
0.0
 10
82.2674854695356
 20
161.6522240956713
 30
0.0
 10
82.3146615679001
 20
161.6806977109001
 30
0.0
 10
82.3726719669719
 20
161.7054134324896
 30
0.0
 10
82.4367174952913
 20
161.7244978812414
 30
0.0
 10
82.50077658553943
 20
161.7435863712111
 30
0.0
 10
82.5726415395043
 20
161.7575750857532
 30
0.0
 10
82.64635952011251
 20
161.7654256127794
 30
0.0
 10
82.72005150873252
 20
161.7732733718134
 30
0.0
 10
82.7976285197689
 20
161.7752071647943
 30
0.0
 10
82.87266186009282
 20
161.7710847133067
 30
0.0
 10
82.94766768703482
 20
161.7669637734482
 30
0.0
 10
83.02219988105458
 20
161.7566757980253
 30
0.0
 10
83.09009052519653
 20
161.7409803987844
 30
0.0
 10
83.15799418806661
 20
161.7252819897894
 30
0.0
 10
83.22112611751861
 20
161.7037350681262
 30
0.0
 10
83.2742663362498
 20
161.6779586577319
 30
0.0
 10
83.3274305129538
 20
161.6521706261861
 30
0.0
 10
83.37206028792482
 20
161.6214294875112
 30
0.0
 10
83.4044598478805
 20
161.5881166792148
 30
0.0
 10
83.43685961705913
 20
161.5548036557982
 30
0.0
 10
83.45792231639993
 20
161.5179929675317
 30
0.0
 10
83.46589984995411
 20
161.4806446294343
 30
0.0
 10
83.4738738125691
 20
161.4433130093669
 30
0.0
 10
83.46899422959142
 20
161.4044127082665
 30
0.0
 10
83.4516660726384
 20
161.3671879163247
 30
0.0
 10
83.4343414348545
 20
161.3299706843526
 30
0.0
 10
83.4040965151101
 20
161.2934058835795
 30
0.0
 10
83.36343620334941
 20
161.2606417624414
 30
0.0
 10
83.3227613296145
 20
161.2278659072494
 30
0.0
 10
83.27054242581872
 20
161.1979971212338
 30
0.0
 10
83.21109905332061
 20
161.1736777434454
 30
0.0
 10
83.1516342238668
 20
161.1493495872215
 30
0.0
 10
83.08329856547012
 20
161.1299119496378
 30
0.0
 10
83.011750094763
 20
161.1171208055806
 30
0.0
 10
82.94021590335421
 20
161.1043322143182
 30
0.0
 10
82.8634959899919
 20
161.0978400191135
 30
0.0
 10
82.78794860130373
 20
161.0982372674514
 30
0.0
 10
82.71243512902541
 20
161.0986343374477
 30
0.0
 10
82.63601062876711
 20
161.1059252512842
 30
0.0
 10
82.5650029275953
 20
161.1194448285366
 30
0.0
 10
82.49399503799981
 20
161.132964441664
 30
0.0
 10
82.42644616967779
 20
161.1530796811038
 30
0.0
 10
82.3679417342483
 20
161.1779774189174
 30
0.0
 10
82.30941096690603
 20
161.2028863628055
 30
0.0
 10
82.25831850584711
 20
161.2332609384428
 30
0.0
 10
82.21889235899549
 20
161.2664168920236
 30
0.0
 10
82.1794585191624
 20
161.2995793151217
 30
0.0
 10
82.1506081099861
 20
161.3364321509548
 30
0.0
 10
82.13473421972023
 20
161.3738033593901
 30
0.0
 10
82.124749339894
 20
161.3973103270545
 30
0.0
 10
82.11967240071533
 20
161.4213507791509
 30
0.0
 10
82.11967240071533
 20
161.4451168152379
 30
0.0
  0
ARC
  5
EA
330
3C
100
AcDbEntity
  8
DV3_デフォルト
  6
CONTINUOUS
 62
     7
100
AcDbCircle
 10
82.7946998828
 20
185.2465790043
 30
0.0
 40
20.99966728449849
100
AcDbArc
 50
268.0896839744
 51
271.9100120798
  0
SPLINE
  5
EB
330
3C
100
AcDbEntity
  8
DV3_デフォルト
  6
CONTINUOUS
 62
     7
100
AcDbSpline
210
0.0
220
0.0
230
1.0
 70
    11
 71
     3
 72
    62
 73
    58
 74
     0
 42
0.0000000030444296
 43
0.0000000001
 40
0.0
 40
0.0
 40
0.0
 40
0.0
 40
0.0536800371231392
 40
0.0536800371231392
 40
0.0536800371231392
 40
0.1073591793150502
 40
0.1073591793150502
 40
0.1073591793150502
 40
0.161052922607225
 40
0.161052922607225
 40
0.161052922607225
 40
0.2147668439965066
 40
0.2147668439965066
 40
0.2147668439965066
 40
0.268470217210755
 40
0.268470217210755
 40
0.268470217210755
 40
0.3221487567324115
 40
0.3221487567324115
 40
0.3221487567324115
 40
0.3758269475579195
 40
0.3758269475579195
 40
0.3758269475579195
 40
0.4295298051253797
 40
0.4295298051253797
 40
0.4295298051253797
 40
0.4832438587363934
 40
0.4832438587363934
 40
0.4832438587363934
 40
0.5369381699038883
 40
0.5369381699038883
 40
0.5369381699038883
 40
0.5906126299327127
 40
0.5906126299327127
 40
0.5906126299327127
 40
0.6442980790952066
 40
0.6442980790952066
 40
0.6442980790952066
 40
0.6980082189141158
 40
0.6980082189141158
 40
0.6980082189141158
 40
0.7517182321697673
 40
0.7517182321697673
 40
0.7517182321697673
 40
0.8054034659083723
 40
0.8054034659083723
 40
0.8054034659083723
 40
0.8590779603608365
 40
0.8590779603608365
 40
0.8590779603608365
 40
0.9127725071935615
 40
0.9127725071935615
 40
0.9127725071935615
 40
0.9664866035596366
 40
0.9664866035596366
 40
0.9664866035596366
 40
1.0
 40
1.0
 40
1.0
 40
1.0
 10
83.465899812769
 20
125.1076930444359
 30
0.0
 10
83.47387295916323
 20
125.0699245936281
 30
0.0
 10
83.46899538481611
 20
125.0313112902628
 30
0.0
 10
83.45167181077102
 20
124.9950295661144
 30
0.0
 10
83.43434839151139
 20
124.9587481661417
 30
0.0
 10
83.404102291229
 20
124.9237941965279
 30
0.0
 10
83.36343892431103
 20
124.8929354211113
 30
0.0
 10
83.32276452621451
 20
124.8620682743107
 30
0.0
 10
83.27054605181691
 20
124.8344397367422
 30
0.0
 10
83.21110302634399
 20
124.8121628120961
 30
0.0
 10
83.15163854280361
 20
124.7898778458044
 30
0.0
 10
83.08330315687881
 20
124.7723256675905
 30
0.0
 10
83.01175486284762
 20
124.7608160727124
 30
0.0
 10
82.94022085318359
 20
124.7493087756847
 30
0.0
 10
82.86350103104101
 20
124.7435193580102
 30
0.0
 10
82.78795363637961
 20
124.7438744165025
 30
0.0
 10
82.71244016432632
 20
124.7442293155649
 30
0.0
 10
82.63601556699948
 20
124.7507329647403
 30
0.0
 10
82.56500767959481
 20
124.7629063879067
 30
0.0
 10
82.4939996047285
 20
124.7750798432111
 30
0.0
 10
82.4264504568756
 20
124.793263622674
 30
0.0
 10
82.36794566935018
 20
124.8161010029533
 30
0.0
 10
82.3094145452978
 20
124.8389486637124
 30
0.0
 10
82.25832164653798
 20
124.8670923676787
 30
0.0
 10
82.21889501583199
 20
124.8983750755929
 30
0.0
 10
82.17946068825951
 20
124.929663890517
 30
0.0
 10
82.15060973399252
 20
124.9649639969325
 30
0.0
 10
82.1347352868143
 20
125.0014705200159
 30
0.0
 10
82.11886661793172
 20
125.0379637547325
 30
0.0
 10
82.11552760262481
 20
125.076672840617
 30
0.0
 10
82.1249954468069
 20
125.1144049211961
 30
0.0
 10
82.13445993077111
 20
125.1521236103411
 30
0.0
 10
82.1569824503549
 20
125.189903924891
 30
0.0
 10
82.19069636346471
 20
125.2245236600339
 30
0.0
 10
82.22441727919549
 20
125.2591505859434
 30
0.0
 10
82.27026325181372
 20
125.2915637903202
 30
0.0
 10
82.3244413936658
 20
125.3189185902928
 30
0.0
 10
82.37864372193141
 20
125.3462856020999
 30
0.0
 10
82.4426811554648
 20
125.3693362041666
 30
0.0
 10
82.511253881551
 20
125.3859998917452
 30
0.0
 10
82.57982583403081
 20
125.4026633913316
 30
0.0
 10
82.65482568492783
 20
125.4133931904537
 30
0.0
 10
82.73003852894922
 20
125.4172112983624
 30
0.0
 10
82.80521739490243
 20
125.4210276814069
 30
0.0
 10
82.8826827884489
 20
125.4180422938489
 30
0.0
 10
82.95601766352611
 20
125.4085279697697
 30
0.0
 10
83.02933883087832
 20
125.399015424104
 30
0.0
 10
83.10055257617091
 20
125.3827184640617
 30
0.0
 10
83.16376880246149
 20
125.3611130560796
 30
0.0
 10
83.22700840382683
 20
125.3394996591988
 30
0.0
 10
83.28398854971961
 20
125.3119857049381
 30
0.0
 10
83.3299964921638
 20
125.2810195061345
 30
0.0
 10
83.37602050440873
 20
125.2500424913583
 30
0.0
 10
83.41233397436939
 20
125.2147639201595
 30
0.0
 10
83.43592696419353
 20
125.1782478360114
 30
0.0
 10
83.45077553363723
 20
125.1552659411637
 30
0.0
 10
83.46087866150589
 20
125.1314780215456
 30
0.0
 10
83.465899812769
 20
125.1076930444359
 30
0.0
  0
ARC
  5
EC
330
3C
100
AcDbEntity
  8
DV3_デフォルト
  6
CONTINUOUS
 62
     7
100
AcDbCircle
 10
87.1946724007
 20
184.7778442299
 30
0.0
 40
20.5387031691946
100
AcDbArc
 50
267.5068270064
 51
272.493172971
  0
LINE
  5
ED
330
3C
100
AcDbEntity
  8
DV3_デフォルト
  6
CONTINUOUS
 62
     7
100
AcDbLine
 10
69.3946724008
 20
164.258582758
 30
0.0
 11
69.1946724008
 21
164.058582758
 31
0.0
  0
LINE
  5
EE
330
3C
100
AcDbEntity
  8
DV3_デフォルト
  6
CONTINUOUS
 62
     7
100
AcDbLine
 10
69.1946724008
 20
122.458582758
 30
0.0
 11
69.3946724008
 21
122.258582758
 31
0.0
  0
LINE
  5
EF
330
3C
100
AcDbEntity
  8
DV3_デフォルト
  6
CONTINUOUS
 62
     7
100
AcDbLine
 10
69.3946724008
 20
122.258582758
 30
0.0
 11
91.4946724008
 21
122.258582758
 31
0.0
  0
LINE
  5
F0
330
3C
100
AcDbEntity
  8
DV3_デフォルト
  6
CONTINUOUS
 62
     7
100
AcDbLine
 10
82.0958161799
 20
164.258582758
 30
0.0
 11
69.3946724008
 21
164.258582758
 31
0.0
  0
LINE
  5
F1
330
3C
100
AcDbEntity
  8
DV3_デフォルト
  6
CONTINUOUS
 62
     7
100
AcDbLine
 10
86.2969068382
 20
164.258582758
 30
0.0
 11
83.4857054981
 21
164.258582758
 31
0.0
  0
LINE
  5
F2
330
3C
100
AcDbEntity
  8
DV3_デフォルト
  6
CONTINUOUS
 62
     7
100
AcDbLine
 10
91.4946724008
 20
164.258582758
 30
0.0
 11
88.0924379633
 21
164.258582758
 31
0.0
  0
LINE
  5
F3
330
3C
100
AcDbEntity
  8
DV3_デフォルト
  6
CONTINUOUS
 62
     7
100
AcDbLine
 10
91.4946724008
 20
122.258582758
 30
0.0
 11
91.6946724008
 21
122.458582758
 31
0.0
  0
LINE
  5
F4
330
3C
100
AcDbEntity
  8
DV3_デフォルト
  6
CONTINUOUS
 62
     7
100
AcDbLine
 10
91.6946724008
 20
164.058582758
 30
0.0
 11
91.4946724008
 21
164.258582758
 31
0.0
  0
LINE
  5
F5
330
3C
100
AcDbEntity
  8
DV3_デフォルト
  6
CONTINUOUS
 62
     7
100
AcDbLine
 10
88.1070434073
 20
164.2723110634
 30
0.0
 11
86.2823013942
 21
164.2723110634
 31
0.0
  0
LINE
  5
F6
330
3C
100
AcDbEntity
  8
DV3_デフォルト
  6
CONTINUOUS
 62
     7
100
AcDbLine
 10
86.2823013942
 20
164.2723110634
 30
0.0
 11
86.2969068382
 21
164.258582758
 31
0.0
  0
LINE
  5
F7
330
3C
100
AcDbEntity
  8
DV3_デフォルト
  6
CONTINUOUS
 62
     7
100
AcDbLine
 10
88.0924379633
 20
164.258582758
 30
0.0
 11
88.1070434073
 21
164.2723110634
 31
0.0
  0
ELLIPSE
  5
F8
330
3C
100
AcDbEntity
  8
DV3_デフォルト
  6
CONTINUOUS
 62
     7
100
AcDbEllipse
 10
128.3946724008
 20
148.8102512754
 30
0.0
 11
-1.000000002384285
 21
-6.071532165918825E-15
 31
0.0
210
0.0
220
0.0
230
1.0
 40
0.9659258263
 41
5.950574201624455
 42
6.283185307179586
  0
ELLIPSE
  5
F9
330
3C
100
AcDbEntity
  8
DV3_デフォルト
  6
CONTINUOUS
 62
     7
100
AcDbEllipse
 10
128.3946724008
 20
148.8102512754
 30
0.0
 11
-1.000000002384285
 21
-6.071532165918825E-15
 31
0.0
210
0.0
220
0.0
230
1.0
 40
0.9659258263
 41
0.0
 42
3.474203759144869
  0
ELLIPSE
  5
FA
330
3C
100
AcDbEntity
  8
DV3_デフォルト
  6
CONTINUOUS
 62
     7
100
AcDbEllipse
 10
128.3946724008
 20
148.8858106404
 30
0.0
 11
-0.974458652217203
 21
-3.035766082959412E-14
 31
0.0
210
0.0
220
0.0
230
1.0
 40
0.9659258263
 41
2.856886953736939
 42
6.00983770928032
  0
ELLIPSE
  5
FB
330
3C
100
AcDbEntity
  8
DV3_デフォルト
  6
CONTINUOUS
 62
     7
100
AcDbEllipse
 10
128.4430467571
 20
145.6463831592
 30
0.0
 11
11.61770830067507
 21
2.998141291215762
 31
0.0
210
0.0
220
0.0
230
1.0
 40
0.2511342476
 41
1.452711430193692
 42
1.476068830847299
  0
ELLIPSE
  5
FC
330
3C
100
AcDbEntity
  8
DV3_デフォルト
  6
CONTINUOUS
 62
     7
100
AcDbEllipse
 10
129.0156696972
 20
145.9833555708
 30
0.0
 11
-2.805073528278606
 21
11.6499769152096
 31
0.0
210
0.0
220
0.0
230
0.9999999999999999
 40
0.0626010118
 41
-1.333125733895254
 42
-1.29974334172547
  0
ELLIPSE
  5
FD
330
3C
100
AcDbEntity
  8
DV3_デフォルト
  6
CONTINUOUS
 62
     7
100
AcDbEllipse
 10
128.3462980625
 20
146.0212814744
 30
0.0
 11
11.61770829446992
 21
2.998141289413202
 31
0.0
210
0.0
220
0.0
230
0.9999999999999997
 40
0.2511342474
 41
1.452711430196273
 42
1.476068830862373
  0
ARC
  5
FE
330
3C
100
AcDbEntity
  8
DV3_デフォルト
  6
CONTINUOUS
 62
     7
100
AcDbCircle
 10
128.6569306935
 20
149.3661082621
 30
0.0
 40
0.1614232876243942
100
AcDbArc
 50
195.8701381895
 51
283.8634097802
  0
ELLIPSE
  5
FF
330
3C
100
AcDbEntity
  8
DV3_デフォルト
  6
CONTINUOUS
 62
     7
100
AcDbEllipse
 10
128.5887340481
 20
145.8805582549
 30
0.0
 11
-2.808681336794992
 21
11.66496080557163
 31
0.0
210
0.0
220
0.0
230
0.9999999999999998
 40
0.0626010121
 41
-1.28642586494233
 42
-1.263068464608956
  0
ELLIPSE
  5
100
330
3C
100
AcDbEntity
  8
DV3_デフォルト
  6
CONTINUOUS
 62
     7
100
AcDbEllipse
 10
128.2398744824
 20
146.4336695912
 30
0.0
 11
11.60278527011157
 21
2.994290162900755
 31
0.0
210
0.0
220
0.0
230
0.9999999999999999
 40
0.2511342495
 41
1.48938630487119
 42
1.522768697046032
  0
ELLIPSE
  5
101
330
3C
100
AcDbEntity
  8
DV3_デフォルト
  6
CONTINUOUS
 62
     7
100
AcDbEllipse
 10
128.2006107522
 20
145.7871062984
 30
0.0
 11
-2.808681297475555
 21
11.664960615533
 31
0.0
210
0.0
220
0.0
230
1.0
 40
0.0626010113
 41
-1.286425869280249
 42
-1.263068468598091
  0
ARC
  5
102
330
3C
100
AcDbEntity
  8
DV3_デフォルト
  6
CONTINUOUS
 62
     7
100
AcDbCircle
 10
127.9627487828
 20
149.192398856
 30
0.0
 40
0.1550527285310218
100
AcDbArc
 50
282.7570349148
 51
13.4690390825
  0
ELLIPSE
  5
103
330
3C
100
AcDbEntity
  8
DV3_デフォルト
  6
CONTINUOUS
 62
     7
100
AcDbEllipse
 10
128.3462980585
 20
146.0212813828
 30
0.0
 11
11.61770846369624
 21
2.998141340393397
 31
0.0
210
0.0
220
0.0
230
1.0
 40
0.2511342511
 41
1.536086172042344
 42
1.559443572367093
  0
ELLIPSE
  5
104
330
3C
100
AcDbEntity
  8
DV3_デフォルト
  6
CONTINUOUS
 62
     7
100
AcDbEllipse
 10
127.7736751043
 20
145.6843089574
 30
0.0
 11
-2.805073527873396
 21
11.6499769132615
 31
0.0
210
0.0
220
0.0
230
1.0
 40
0.0626010118
 41
-1.333125733931256
 42
-1.299743341754878
  0
ELLIPSE
  5
105
330
3C
100
AcDbEntity
  8
DV3_デフォルト
  6
CONTINUOUS
 62
     7
100
AcDbEllipse
 10
128.4430467527
 20
145.6463830707
 30
0.0
 11
11.61770846378086
 21
2.998141340530604
 31
0.0
210
0.0
220
0.0
230
1.0
 40
0.2511342511
 41
1.536086172015241
 42
1.559443572339917
  0
ARC
  5
106
330
3C
100
AcDbEntity
  8
DV3_デフォルト
  6
CONTINUOUS
 62
     7
100
AcDbCircle
 10
128.1339220218
 20
148.5121520948
 30
0.0
 40
0.1592761229092015
100
AcDbArc
 50
15.1195679497
 51
104.61398002
  0
ELLIPSE
  5
107
330
3C
100
AcDbEntity
  8
DV3_デフォルト
  6
CONTINUOUS
 62
     7
100
AcDbEllipse
 10
128.2006107569
 20
145.7871062742
 30
0.0
 11
-2.80868130002928
 21
11.66496063220047
 31
0.0
210
0.0
220
0.0
230
0.9999999999999999
 40
0.0626010113
 41
-1.369800611230401
 42
-1.346443210569566
  0
ELLIPSE
  5
108
330
3C
100
AcDbEntity
  8
DV3_デフォルト
  6
CONTINUOUS
 62
     7
100
AcDbEllipse
 10
128.5494703191
 20
145.2339949373
 30
0.0
 11
11.602785270788
 21
2.994290163115823
 31
0.0
210
0.0
220
0.0
230
1.0
 40
0.2511342495
 41
1.489386304861382
 42
1.52276869703419
  0
ELLIPSE
  5
109
330
3C
100
AcDbEntity
  8
DV3_デフォルト
  6
CONTINUOUS
 62
     7
100
AcDbEllipse
 10
128.588734049
 20
145.8805583332
 30
0.0
 11
-2.808681302189477
 21
11.66496064210958
 31
0.0
210
0.0
220
0.0
230
1.0
 40
0.0626010113
 41
-1.369800611095093
 42
-1.346443210453241
  0
ARC
  5
10A
330
3C
100
AcDbEntity
  8
DV3_デフォルト
  6
CONTINUOUS
 62
     7
100
AcDbCircle
 10
128.8250590064
 20
148.6842199071
 30
0.0
 40
0.1537861062776978
100
AcDbArc
 50
102.2771909887
 51
193.9488830086
  0
LINE
  5
10B
330
3C
100
AcDbEntity
  8
DV3_デフォルト
  6
CONTINUOUS
 62
     7
100
AcDbLine
 10
128.4339361286
 20
149.5813718217
 30
0.0
 11
128.4339361286
 21
149.534460347
 31
0.0
  0
LINE
  5
10C
330
3C
100
AcDbEntity
  8
DV3_デフォルト
  6
CONTINUOUS
 62
     7
100
AcDbLine
 10
128.96729535
 20
149.2717809268
 30
0.0
 11
128.96729535
 21
149.2248694521
 31
0.0
  0
ELLIPSE
  5
10D
330
3C
100
AcDbEntity
  8
DV3_デフォルト
  6
CONTINUOUS
 62
     7
100
AcDbEllipse
 10
128.8310925157
 20
148.6345748591
 30
0.0
 11
0.1600291457890622
 21
-3.469446951953613E-15
 31
0.0
210
0.0
220
0.0
230
1.0
 40
0.9659258263
 41
3.141592653589793
 42
3.38570494291595
  0
LINE
  5
10E
330
3C
100
AcDbEntity
  8
DV3_デフォルト
  6
CONTINUOUS
 62
     7
100
AcDbLine
 10
128.675807872
 20
148.5972145395
 30
0.0
 11
128.7321219453
 21
148.3789991818
 31
0.0
  0
LINE
  5
10F
330
3C
100
AcDbEntity
  8
DV3_デフォルト
  6
CONTINUOUS
 62
     7
100
AcDbLine
 10
127.7367425798
 20
148.928577792
 30
0.0
 11
127.9969870903
 21
148.9912392885
 31
0.0
  0
ELLIPSE
  5
110
330
3C
100
AcDbEntity
  8
DV3_デフォルト
  6
CONTINUOUS
 62
     7
100
AcDbEllipse
 10
127.9582522858
 20
149.1412191188
 30
0.0
 11
-0.1600291457890466
 21
4.336808689942019E-15
 31
0.0
210
0.0
220
0.0
230
1.0
 40
0.9659258263
 41
1.815272838969099
 42
3.141592653589793
  0
LINE
  5
111
330
3C
100
AcDbEntity
  8
DV3_デフォルト
  6
CONTINUOUS
 62
     7
100
AcDbLine
 10
128.0573653136
 20
149.443789882
 30
0.0
 11
128.4339361286
 21
149.534460347
 31
0.0
  0
LINE
  5
112
330
3C
100
AcDbEntity
  8
DV3_デフォルト
  6
CONTINUOUS
 62
     7
100
AcDbLine
 10
128.4339361286
 20
149.534460347
 30
0.0
 11
128.5016602219
 21
149.272031501
 31
0.0
  0
ELLIPSE
  5
113
330
3C
100
AcDbEntity
  8
DV3_デフォルト
  6
CONTINUOUS
 62
     7
100
AcDbEllipse
 10
128.6569099485
 20
149.3094129846
 30
0.0
 11
-0.1600005623866776
 21
-8.673617379884037E-16
 31
0.0
210
0.0
220
0.0
230
1.0
 40
0.9659258263
 41
0.2442979156485432
 42
1.815087212647517
  0
LINE
  5
114
330
3C
100
AcDbEntity
  8
DV3_デフォルト
  6
CONTINUOUS
 62
     7
100
AcDbLine
 10
128.6956090167
 20
149.1594530013
 30
0.0
 11
128.96729535
 21
149.2248694521
 31
0.0
  0
LINE
  5
115
330
3C
100
AcDbEntity
  8
DV3_デフォルト
  6
CONTINUOUS
 62
     7
100
AcDbLine
 10
128.96729535
 20
149.2248694521
 30
0.0
 11
129.0526067762
 21
148.8942902144
 31
0.0
  0
LINE
  5
116
330
3C
100
AcDbEntity
  8
DV3_デフォルト
  6
CONTINUOUS
 62
     7
100
AcDbLine
 10
129.339865412
 20
149.1256377822
 30
0.0
 11
129.3157239063
 21
149.19314175
 31
0.0
  0
LINE
  5
117
330
3C
100
AcDbEntity
  8
DV3_デフォルト
  6
CONTINUOUS
 62
     7
100
AcDbLine
 10
127.4736208952
 20
149.19314175
 30
0.0
 11
127.4494793896
 21
149.1256377822
 31
0.0
  0
LINE
  5
118
330
3C
100
AcDbEntity
  8
DV3_デフォルト
  6
CONTINUOUS
 62
     7
100
AcDbLine
 10
128.6710633699
 20
148.6863386681
 30
0.0
 11
128.6710633699
 21
148.6345748591
 31
0.0
  0
LINE
  5
119
330
3C
100
AcDbEntity
  8
DV3_デフォルト
  6
CONTINUOUS
 62
     7
100
AcDbLine
 10
128.1182814316
 20
149.1412191188
 30
0.0
 11
128.1182814316
 21
149.1929829278
 31
0.0
  0
LINE
  5
11B
330
3C
100
AcDbEntity
  8
DV3_デフォルト
  6
CENTER2
 62
     7
100
AcDbLine
 10
68.6363937363
 20
143.258582758
 30
0.0
 11
143.3954326154
 21
143.258582758
 31
0.0
  0
LINE
  5
11C
330
3C
100
AcDbEntity
  8
DV3_デフォルト
  6
CENTER2
 62
     7
100
AcDbLine
 10
139.4446724008
 20
155.458582758
 30
0.0
 11
141.9946724008
 21
155.458582758
 31
0.0
  0
LINE
  5
11D
330
3C
100
AcDbEntity
  8
DV3_デフォルト
  6
CENTER2
 62
     7
100
AcDbLine
 10
139.4446724008
 20
131.058582758
 30
0.0
 11
141.9946724008
 21
131.058582758
 31
0.0
  0
LINE
  5
11E
330
3C
100
AcDbEntity
  8
DV3_デフォルト
  6
CENTER2
 62
     7
100
AcDbLine
 10
153.9529054478
 20
145.0263497109
 30
0.0
 11
157.4884393537
 21
141.490815805
 31
0.0
  0
LINE
  5
11F
330
3C
100
AcDbEntity
  8
DV3_デフォルト
  6
CENTER2
 62
     7
100
AcDbLine
 10
153.9529054478
 20
141.490815805
 30
0.0
 11
157.4884393537
 21
145.0263497109
 31
0.0
  0
LINE
  5
120
330
3C
100
AcDbEntity
  8
DV3_デフォルト
  6
CENTER2
 62
     7
100
AcDbLine
 10
69.3946724008
 20
163.508582758
 30
0.0
 11
71.449258059
 21
163.508582758
 31
0.0
  0
LINE
  5
121
330
3C
100
AcDbEntity
  8
DV3_デフォルト
  6
CENTER2
 62
     7
100
AcDbLine
 10
69.3946724008
 20
123.008582758
 30
0.0
 11
71.449258059
 21
123.008582758
 31
0.0
  0
ENDBLK
  5
123
330
3C
100
AcDbEntity
  8
0
100
AcDbBlockEnd
  0
BLOCK
  5
150
330
125
100
AcDbEntity
  8
0
100
AcDbBlockBegin
  2
GDIMGGROUP
 70
     0
 10
0.0
 20
0.0
 30
0.0
  3
GDIMGGROUP
  1

  0
POLYLINE
  5
127
330
125
100
AcDbEntity
  8
ﾃﾞﾌｫﾙﾄ
  6
CONTINUOUS
 62
     7
100
AcDb2dPolyline
 66
     1
 10
0.0
 20
0.0
 30
0.0
  0
VERTEX
  5
184
330
127
100
AcDbEntity
  8
ﾃﾞﾌｫﾙﾄ
  6
CONTINUOUS
 62
     7
100
AcDbVertex
100
AcDb2dVertex
 10
72.3946723199
 20
108.4553229684
 30
0.0
  0
VERTEX
  5
185
330
127
100
AcDbEntity
  8
ﾃﾞﾌｫﾙﾄ
  6
CONTINUOUS
 62
     7
100
AcDbVertex
100
AcDb2dVertex
 10
69.1946724008
 20
107.9219896486
 30
0.0
  0
VERTEX
  5
186
330
127
100
AcDbEntity
  8
ﾃﾞﾌｫﾙﾄ
  6
CONTINUOUS
 62
     7
100
AcDbVertex
100
AcDb2dVertex
 10
72.3946723199
 20
107.3886563287
 30
0.0
  0
SEQEND
  5
187
330
127
100
AcDbEntity
  8
ﾃﾞﾌｫﾙﾄ
  6
CONTINUOUS
 62
     7
  0
POLYLINE
  5
128
330
125
100
AcDbEntity
  8
ﾃﾞﾌｫﾙﾄ
  6
CONTINUOUS
 62
     7
100
AcDb2dPolyline
 66
     1
 10
0.0
 20
0.0
 30
0.0
  0
VERTEX
  5
188
330
128
100
AcDbEntity
  8
ﾃﾞﾌｫﾙﾄ
  6
CONTINUOUS
 62
     7
100
AcDbVertex
100
AcDb2dVertex
 10
134.9946707531
 20
108.4553229684
 30
0.0
  0
VERTEX
  5
189
330
128
100
AcDbEntity
  8
ﾃﾞﾌｫﾙﾄ
  6
CONTINUOUS
 62
     7
100
AcDbVertex
100
AcDb2dVertex
 10
138.1946706722
 20
107.9219896486
 30
0.0
  0
VERTEX
  5
18A
330
128
100
AcDbEntity
  8
ﾃﾞﾌｫﾙﾄ
  6
CONTINUOUS
 62
     7
100
AcDbVertex
100
AcDb2dVertex
 10
134.9946707531
 20
107.3886563287
 30
0.0
  0
SEQEND
  5
18B
330
128
100
AcDbEntity
  8
ﾃﾞﾌｫﾙﾄ
  6
CONTINUOUS
 62
     7
  0
LINE
  5
129
330
125
100
AcDbEntity
  8
ﾃﾞﾌｫﾙﾄ
  6
CONTINUOUS
 62
     7
100
AcDbLine
 10
69.1946724008
 20
121.1785827903
 30
0.0
 11
69.1946724008
 21
106.321989689
 31
0.0
  0
LINE
  5
12A
330
125
100
AcDbEntity
  8
ﾃﾞﾌｫﾙﾄ
  6
CONTINUOUS
 62
     7
100
AcDbLine
 10
138.1946724008
 20
127.1785827903
 30
0.0
 11
138.1946724008
 21
106.321989689
 31
0.0
  0
LINE
  5
12B
330
125
100
AcDbEntity
  8
ﾃﾞﾌｫﾙﾄ
  6
CONTINUOUS
 62
     7
100
AcDbLine
 10
69.1946724008
 20
107.9219896486
 30
0.0
 11
138.1946706722
 21
107.9219896486
 31
0.0
  0
TEXT
  5
14F
330
125
100
AcDbEntity
  8
ﾃﾞﾌｫﾙﾄ
  6
CONTINUOUS
 62
     7
100
AcDbText
 10
101.3532081219
 20
108.7219896486
 30
0.0
 40
3.2
  1
69
  7
SEACAD_SEANSI_TTF
 11
101.3532081219
 21
111.9219896486
 31
0.0
100
AcDbText
 73
     3
  0
ENDBLK
  5
151
330
125
100
AcDbEntity
  8
0
100
AcDbBlockEnd
  0
BLOCK
  5
15A
330
152
100
AcDbEntity
  8
0
100
AcDbBlockBegin
  2
GDIMGGROUP1
 70
     0
 10
0.0
 20
0.0
 30
0.0
  3
GDIMGGROUP1
  1

  0
POLYLINE
  5
154
330
152
100
AcDbEntity
  8
ﾃﾞﾌｫﾙﾄ
  6
CONTINUOUS
 62
     7
100
AcDb2dPolyline
 66
     1
 10
0.0
 20
0.0
 30
0.0
  0
VERTEX
  5
18C
330
154
100
AcDbEntity
  8
ﾃﾞﾌｫﾙﾄ
  6
CONTINUOUS
 62
     7
100
AcDbVertex
100
AcDb2dVertex
 10
141.3946723199
 20
108.4553238476
 30
0.0
  0
VERTEX
  5
18D
330
154
100
AcDbEntity
  8
ﾃﾞﾌｫﾙﾄ
  6
CONTINUOUS
 62
     7
100
AcDbVertex
100
AcDb2dVertex
 10
138.1946724008
 20
107.9219905277
 30
0.0
  0
VERTEX
  5
18E
330
154
100
AcDbEntity
  8
ﾃﾞﾌｫﾙﾄ
  6
CONTINUOUS
 62
     7
100
AcDbVertex
100
AcDb2dVertex
 10
141.3946723199
 20
107.3886572079
 30
0.0
  0
SEQEND
  5
18F
330
154
100
AcDbEntity
  8
ﾃﾞﾌｫﾙﾄ
  6
CONTINUOUS
 62
     7
  0
POLYLINE
  5
155
330
152
100
AcDbEntity
  8
ﾃﾞﾌｫﾙﾄ
  6
CONTINUOUS
 62
     7
100
AcDb2dPolyline
 66
     1
 10
0.0
 20
0.0
 30
0.0
  0
VERTEX
  5
190
330
155
100
AcDbEntity
  8
ﾃﾞﾌｫﾙﾄ
  6
CONTINUOUS
 62
     7
100
AcDbVertex
100
AcDb2dVertex
 10
152.5206732197
 20
108.4553238476
 30
0.0
  0
VERTEX
  5
191
330
155
100
AcDbEntity
  8
ﾃﾞﾌｫﾙﾄ
  6
CONTINUOUS
 62
     7
100
AcDbVertex
100
AcDb2dVertex
 10
155.7206731389
 20
107.9219905277
 30
0.0
  0
VERTEX
  5
192
330
155
100
AcDbEntity
  8
ﾃﾞﾌｫﾙﾄ
  6
CONTINUOUS
 62
     7
100
AcDbVertex
100
AcDb2dVertex
 10
152.5206732197
 20
107.3886572079
 30
0.0
  0
SEQEND
  5
193
330
155
100
AcDbEntity
  8
ﾃﾞﾌｫﾙﾄ
  6
CONTINUOUS
 62
     7
  0
LINE
  5
156
330
152
100
AcDbEntity
  8
ﾃﾞﾌｫﾙﾄ
  6
CONTINUOUS
 62
     7
100
AcDbLine
 10
138.1946724008
 20
127.1785827903
 30
0.0
 11
138.1946724008
 21
106.3219905682
 31
0.0
  0
LINE
  5
157
330
152
100
AcDbEntity
  8
ﾃﾞﾌｫﾙﾄ
  6
CONTINUOUS
 62
     7
100
AcDbLine
 10
155.7206724007
 20
141.9785827902
 30
0.0
 11
155.7206724007
 21
106.3219905682
 31
0.0
  0
LINE
  5
158
330
152
100
AcDbEntity
  8
ﾃﾞﾌｫﾙﾄ
  6
CONTINUOUS
 62
     7
100
AcDbLine
 10
138.1946724008
 20
107.9219905277
 30
0.0
 11
155.7206731389
 21
107.9219905277
 31
0.0
  0
TEXT
  5
159
330
152
100
AcDbEntity
  8
ﾃﾞﾌｫﾙﾄ
  6
CONTINUOUS
 62
     7
100
AcDbText
 10
140.6162093552
 20
108.7219905277
 30
0.0
 40
3.2
  1
17.526
  7
SEACAD_SEANSI_TTF
 11
140.6162093552
 21
111.9219905277
 31
0.0
100
AcDbText
 73
     3
  0
ENDBLK
  5
15B
330
152
100
AcDbEntity
  8
0
100
AcDbBlockEnd
  0
BLOCK
  5
164
330
15C
100
AcDbEntity
  8
0
100
AcDbBlockBegin
  2
GDIMGGROUP2
 70
     0
 10
0.0
 20
0.0
 30
0.0
  3
GDIMGGROUP2
  1

  0
POLYLINE
  5
15E
330
15C
100
AcDbEntity
  8
ﾃﾞﾌｫﾙﾄ
  6
CONTINUOUS
 62
     7
100
AcDb2dPolyline
 66
     1
 10
0.0
 20
0.0
 30
0.0
  0
VERTEX
  5
194
330
15E
100
AcDbEntity
  8
ﾃﾞﾌｫﾙﾄ
  6
CONTINUOUS
 62
     7
100
AcDbVertex
100
AcDb2dVertex
 10
134.9946724816
 20
115.8907350624
 30
0.0
  0
VERTEX
  5
195
330
15E
100
AcDbEntity
  8
ﾃﾞﾌｫﾙﾄ
  6
CONTINUOUS
 62
     7
100
AcDbVertex
100
AcDb2dVertex
 10
138.1946724008
 20
115.3574017426
 30
0.0
  0
VERTEX
  5
196
330
15E
100
AcDbEntity
  8
ﾃﾞﾌｫﾙﾄ
  6
CONTINUOUS
 62
     7
100
AcDbVertex
100
AcDb2dVertex
 10
134.9946724816
 20
114.8240684227
 30
0.0
  0
SEQEND
  5
197
330
15E
100
AcDbEntity
  8
ﾃﾞﾌｫﾙﾄ
  6
CONTINUOUS
 62
     7
  0
POLYLINE
  5
15F
330
15C
100
AcDbEntity
  8
ﾃﾞﾌｫﾙﾄ
  6
CONTINUOUS
 62
     7
100
AcDb2dPolyline
 66
     1
 10
0.0
 20
0.0
 30
0.0
  0
VERTEX
  5
198
330
15F
100
AcDbEntity
  8
ﾃﾞﾌｫﾙﾄ
  6
CONTINUOUS
 62
     7
100
AcDbVertex
100
AcDb2dVertex
 10
145.3946723199
 20
115.8907350624
 30
0.0
  0
VERTEX
  5
199
330
15F
100
AcDbEntity
  8
ﾃﾞﾌｫﾙﾄ
  6
CONTINUOUS
 62
     7
100
AcDbVertex
100
AcDb2dVertex
 10
142.1946724008
 20
115.3574017426
 30
0.0
  0
VERTEX
  5
19A
330
15F
100
AcDbEntity
  8
ﾃﾞﾌｫﾙﾄ
  6
CONTINUOUS
 62
     7
100
AcDbVertex
100
AcDb2dVertex
 10
145.3946723199
 20
114.8240684227
 30
0.0
  0
SEQEND
  5
19B
330
15F
100
AcDbEntity
  8
ﾃﾞﾌｫﾙﾄ
  6
CONTINUOUS
 62
     7
  0
LINE
  5
160
330
15C
100
AcDbEntity
  8
ﾃﾞﾌｫﾙﾄ
  6
CONTINUOUS
 62
     7
100
AcDbLine
 10
138.1946724008
 20
127.1785827903
 30
0.0
 11
138.1946724008
 21
113.757401783
 31
0.0
  0
LINE
  5
161
330
15C
100
AcDbEntity
  8
ﾃﾞﾌｫﾙﾄ
  6
CONTINUOUS
 62
     7
100
AcDbLine
 10
142.1946724008
 20
129.9785827903
 30
0.0
 11
142.1946724008
 21
113.757401783
 31
0.0
  0
LINE
  5
162
330
15C
100
AcDbEntity
  8
ﾃﾞﾌｫﾙﾄ
  6
CONTINUOUS
 62
     7
100
AcDbLine
 10
131.7946725624
 20
115.3574017426
 30
0.0
 11
148.5946724291
 21
115.3574017426
 31
0.0
  0
TEXT
  5
163
330
15C
100
AcDbEntity
  8
ﾃﾞﾌｫﾙﾄ
  6
CONTINUOUS
 62
     7
100
AcDbText
 10
139.0239407884
 20
116.1574017426
 30
0.0
 40
3.2
  1
4
  7
SEACAD_SEANSI_TTF
 11
139.0239407884
 21
119.3574017426
 31
0.0
100
AcDbText
 73
     3
  0
ENDBLK
  5
165
330
15C
100
AcDbEntity
  8
0
100
AcDbBlockEnd
  0
BLOCK
  5
170
330
166
100
AcDbEntity
  8
0
100
AcDbBlockBegin
  2
GDIMGGROUP3
 70
     0
 10
0.0
 20
0.0
 30
0.0
  3
GDIMGGROUP3
  1

  0
POLYLINE
  5
168
330
166
100
AcDbEntity
  8
ﾃﾞﾌｫﾙﾄ
  6
CONTINUOUS
 62
     7
100
AcDb2dPolyline
 66
     1
 10
0.0
 20
0.0
 30
0.0
  0
VERTEX
  5
19C
330
168
100
AcDbEntity
  8
ﾃﾞﾌｫﾙﾄ
  6
CONTINUOUS
 62
     7
100
AcDbVertex
100
AcDb2dVertex
 10
52.4075724288
 20
125.4585826771
 30
0.0
  0
VERTEX
  5
19D
330
168
100
AcDbEntity
  8
ﾃﾞﾌｫﾙﾄ
  6
CONTINUOUS
 62
     7
100
AcDbVertex
100
AcDb2dVertex
 10
51.874239109
 20
122.258582758
 30
0.0
  0
VERTEX
  5
19E
330
168
100
AcDbEntity
  8
ﾃﾞﾌｫﾙﾄ
  6
CONTINUOUS
 62
     7
100
AcDbVertex
100
AcDb2dVertex
 10
51.3409057891
 20
125.4585826771
 30
0.0
  0
SEQEND
  5
19F
330
168
100
AcDbEntity
  8
ﾃﾞﾌｫﾙﾄ
  6
CONTINUOUS
 62
     7
  0
POLYLINE
  5
169
330
166
100
AcDbEntity
  8
ﾃﾞﾌｫﾙﾄ
  6
CONTINUOUS
 62
     7
100
AcDb2dPolyline
 66
     1
 10
0.0
 20
0.0
 30
0.0
  0
VERTEX
  5
1A0
330
169
100
AcDbEntity
  8
ﾃﾞﾌｫﾙﾄ
  6
CONTINUOUS
 62
     7
100
AcDbVertex
100
AcDb2dVertex
 10
52.4075724288
 20
161.0585822725
 30
0.0
  0
VERTEX
  5
1A1
330
169
100
AcDbEntity
  8
ﾃﾞﾌｫﾙﾄ
  6
CONTINUOUS
 62
     7
100
AcDbVertex
100
AcDb2dVertex
 10
51.874239109
 20
164.2585821917
 30
0.0
  0
VERTEX
  5
1A2
330
169
100
AcDbEntity
  8
ﾃﾞﾌｫﾙﾄ
  6
CONTINUOUS
 62
     7
100
AcDbVertex
100
AcDb2dVertex
 10
51.3409057891
 20
161.0585822725
 30
0.0
  0
SEQEND
  5
1A3
330
169
100
AcDbEntity
  8
ﾃﾞﾌｫﾙﾄ
  6
CONTINUOUS
 62
     7
  0
LINE
  5
16A
330
166
100
AcDbEntity
  8
ﾃﾞﾌｫﾙﾄ
  6
CONTINUOUS
 62
     7
100
AcDbLine
 10
68.1146724331
 20
122.258582758
 30
0.0
 11
50.2742391494
 21
122.258582758
 31
0.0
  0
LINE
  5
16B
330
166
100
AcDbEntity
  8
ﾃﾞﾌｫﾙﾄ
  6
CONTINUOUS
 62
     7
100
AcDbLine
 10
68.1146724331
 20
164.258582758
 30
0.0
 11
50.2742391494
 21
164.258582758
 31
0.0
  0
LINE
  5
16C
330
166
100
AcDbEntity
  8
ﾃﾞﾌｫﾙﾄ
  6
CONTINUOUS
 62
     7
100
AcDbLine
 10
51.874239109
 20
122.258582758
 30
0.0
 11
51.874239109
 21
164.2585821917
 31
0.0
  0
TEXT
  5
16D
330
166
100
AcDbEntity
  8
ﾃﾞﾌｫﾙﾄ
  6
CONTINUOUS
 62
     7
100
AcDbText
 10
51.074239109
 20
142.9016804637
 30
0.0
 40
3.2
  1
42
 50
90.0
  7
SEACAD_SEANSI_TTF
 11
47.874239109
 21
142.9016804637
 31
0.0
100
AcDbText
 73
     3
  0
TEXT
  5
16F
330
166
100
AcDbEntity
  8
ﾃﾞﾌｫﾙﾄ
  6
CONTINUOUS
 62
     7
100
AcDbText
 10
51.074239109
 20
138.9325576567
 30
0.0
 40
3.2
  1
O
 50
90.0
  7
SEACAD_SEMECA1_TTF
 11
47.874239109
 21
138.9325576567
 31
0.0
100
AcDbText
 73
     3
  0
ENDBLK
  5
171
330
166
100
AcDbEntity
  8
0
100
AcDbBlockEnd
  0
BLOCK
  5
17C
330
172
100
AcDbEntity
  8
0
100
AcDbBlockBegin
  2
GDIMGGROUP4
 70
     0
 10
0.0
 20
0.0
 30
0.0
  3
GDIMGGROUP4
  1

  0
POLYLINE
  5
174
330
172
100
AcDbEntity
  8
ﾃﾞﾌｫﾙﾄ
  6
CONTINUOUS
 62
     7
100
AcDb2dPolyline
 66
     1
 10
0.0
 20
0.0
 30
0.0
  0
VERTEX
  5
1A4
330
174
100
AcDbEntity
  8
ﾃﾞﾌｫﾙﾄ
  6
CONTINUOUS
 62
     7
100
AcDbVertex
100
AcDb2dVertex
 10
61.0723052278
 20
160.3085828388
 30
0.0
  0
VERTEX
  5
1A5
330
174
100
AcDbEntity
  8
ﾃﾞﾌｫﾙﾄ
  6
CONTINUOUS
 62
     7
100
AcDbVertex
100
AcDb2dVertex
 10
60.5389719079
 20
163.508582758
 30
0.0
  0
VERTEX
  5
1A6
330
174
100
AcDbEntity
  8
ﾃﾞﾌｫﾙﾄ
  6
CONTINUOUS
 62
     7
100
AcDbVertex
100
AcDb2dVertex
 10
60.005638588
 20
160.3085828388
 30
0.0
  0
SEQEND
  5
1A7
330
174
100
AcDbEntity
  8
ﾃﾞﾌｫﾙﾄ
  6
CONTINUOUS
 62
     7
  0
POLYLINE
  5
175
330
172
100
AcDbEntity
  8
ﾃﾞﾌｫﾙﾄ
  6
CONTINUOUS
 62
     7
100
AcDb2dPolyline
 66
     1
 10
0.0
 20
0.0
 30
0.0
  0
VERTEX
  5
1A8
330
175
100
AcDbEntity
  8
ﾃﾞﾌｫﾙﾄ
  6
CONTINUOUS
 62
     7
100
AcDbVertex
100
AcDb2dVertex
 10
61.0723052278
 20
126.2085825579
 30
0.0
  0
VERTEX
  5
1A9
330
175
100
AcDbEntity
  8
ﾃﾞﾌｫﾙﾄ
  6
CONTINUOUS
 62
     7
100
AcDbVertex
100
AcDb2dVertex
 10
60.5389719079
 20
123.0085826387
 30
0.0
  0
VERTEX
  5
1AA
330
175
100
AcDbEntity
  8
ﾃﾞﾌｫﾙﾄ
  6
CONTINUOUS
 62
     7
100
AcDbVertex
100
AcDb2dVertex
 10
60.005638588
 20
126.2085825579
 30
0.0
  0
SEQEND
  5
1AB
330
175
100
AcDbEntity
  8
ﾃﾞﾌｫﾙﾄ
  6
CONTINUOUS
 62
     7
  0
LINE
  5
176
330
172
100
AcDbEntity
  8
ﾃﾞﾌｫﾙﾄ
  6
CONTINUOUS
 62
     7
100
AcDbLine
 10
68.1146724331
 20
163.508582758
 30
0.0
 11
58.9389719483
 21
163.508582758
 31
0.0
  0
LINE
  5
177
330
172
100
AcDbEntity
  8
ﾃﾞﾌｫﾙﾄ
  6
CONTINUOUS
 62
     7
100
AcDbLine
 10
68.1146724331
 20
123.008582758
 30
0.0
 11
58.9389719483
 21
123.008582758
 31
0.0
  0
LINE
  5
178
330
172
100
AcDbEntity
  8
ﾃﾞﾌｫﾙﾄ
  6
CONTINUOUS
 62
     7
100
AcDbLine
 10
60.5389719079
 20
163.508582758
 30
0.0
 11
60.5389719079
 21
123.0085826387
 31
0.0
  0
TEXT
  5
179
330
172
100
AcDbEntity
  8
ﾃﾞﾌｫﾙﾄ
  6
CONTINUOUS
 62
     7
100
AcDbText
 10
59.7389719079
 20
130.9676798314
 30
0.0
 40
3.2
  1
O
 50
90.0
  7
SEACAD_SEMECA1_TTF
 11
56.5389719079
 21
130.9676798314
 31
0.0
100
AcDbText
 73
     3
  0
TEXT
  5
17A
330
172
100
AcDbEntity
  8
ﾃﾞﾌｫﾙﾄ
  6
CONTINUOUS
 62
     7
100
AcDbText
 10
59.7389719079
 20
134.9368026384
 30
0.0
 40
3.2
  1
40.5
 50
90.0
  7
SEACAD_SEANSI_TTF
 11
56.5389719079
 21
134.9368026384
 31
0.0
100
AcDbText
 73
     3
  0
TEXT
  5
17B
330
172
100
AcDbEntity
  8
ﾃﾞﾌｫﾙﾄ
  6
CONTINUOUS
 62
     7
100
AcDbText
 10
59.7389719079
 20
143.2568026384
 30
0.0
 40
3.2
  1
 P=0.5
 50
90.0
  7
SEACAD_SEANSI_TTF
 11
56.5389719079
 21
143.2568026384
 31
0.0
100
AcDbText
 73
     3
  0
ENDBLK
  5
17D
330
172
100
AcDbEntity
  8
0
100
AcDbBlockEnd
  0
ENDSEC
  0
SECTION
  2
ENTITIES
  0
INSERT
  5
3D
330
1F
100
AcDbEntity
  8
DEFAULT
100
AcDbBlockReference
  2
SE
 10
0.0
 20
0.0
 30
0.0
  0
INSERT
  5
126
330
1F
100
AcDbEntity
  8
ﾃﾞﾌｫﾙﾄ
100
AcDbBlockReference
  2
GDIMGGROUP
 10
0.0
 20
0.0
 30
0.0
  0
INSERT
  5
153
330
1F
100
AcDbEntity
  8
ﾃﾞﾌｫﾙﾄ
100
AcDbBlockReference
  2
GDIMGGROUP1
 10
0.0
 20
0.0
 30
0.0
  0
INSERT
  5
15D
330
1F
100
AcDbEntity
  8
ﾃﾞﾌｫﾙﾄ
100
AcDbBlockReference
  2
GDIMGGROUP2
 10
0.0
 20
0.0
 30
0.0
  0
INSERT
  5
167
330
1F
100
AcDbEntity
  8
ﾃﾞﾌｫﾙﾄ
100
AcDbBlockReference
  2
GDIMGGROUP3
 10
0.0
 20
0.0
 30
0.0
  0
INSERT
  5
173
330
1F
100
AcDbEntity
  8
ﾃﾞﾌｫﾙﾄ
100
AcDbBlockReference
  2
GDIMGGROUP4
 10
0.0
 20
0.0
 30
0.0
  0
ENDSEC
  0
SECTION
  2
OBJECTS
  0
DICTIONARY
  5
C
330
0
100
AcDbDictionary
  3
ACAD_GROUP
350
D
  3
ACAD_LAYOUT
350
1A
  3
ACAD_MLEADERSTYLE
350
180
  3
ACAD_MLINESTYLE
350
17
  3
ACAD_PLOTSETTINGS
350
19
  3
ACAD_SCALELIST
350
12C
  3
ACAD_VISUALSTYLE
350
2A
  3
ACDBVARIABLEDICTIONARY
350
17E
1001
ACAD
1000
TREAT_AS_HARD
1070
     0
  0
DICTIONARY
  5
D
102
{ACAD_REACTORS
330
C
102
}
330
C
100
AcDbDictionary
1001
ACAD
1000
TREAT_AS_HARD
1070
     0
  0
DICTIONARY
  5
1A
102
{ACAD_REACTORS
330
C
102
}
330
C
100
AcDbDictionary
1001
ACAD
1000
TREAT_AS_HARD
1070
     0
  0
DICTIONARY
  5
180
102
{ACAD_REACTORS
330
C
102
}
330
C
100
AcDbDictionary
1001
ACAD
1000
TREAT_AS_HARD
1070
     0
  0
DICTIONARY
  5
17
102
{ACAD_REACTORS
330
C
102
}
330
C
100
AcDbDictionary
  3
STANDARD
350
18
1001
ACAD
1000
TREAT_AS_HARD
1070
     0
  0
DICTIONARY
  5
19
102
{ACAD_REACTORS
330
C
102
}
330
C
100
AcDbDictionary
1001
ACAD
1000
TREAT_AS_HARD
1070
     0
  0
DICTIONARY
  5
12C
102
{ACAD_REACTORS
330
C
102
}
330
C
100
AcDbDictionary
  3
A0
350
12D
  3
A1
350
12E
  3
A2
350
12F
  3
A3
350
130
  3
A4
350
131
  3
A5
350
132
  3
A6
350
133
  3
A7
350
134
  3
A8
350
135
  3
A9
350
136
  3
B0
350
137
  3
B1
350
138
  3
B2
350
139
  3
B3
350
13A
  3
B4
350
13B
  3
B5
350
13C
  3
B6
350
13D
  3
B7
350
13E
  3
B8
350
13F
  3
B9
350
140
  3
C0
350
141
  3
C1
350
142
  3
C2
350
143
  3
C3
350
144
  3
C4
350
145
  3
C5
350
146
  3
C6
350
147
  3
C7
350
148
  3
C8
350
149
  3
C9
350
14A
  3
D0
350
14B
  3
D1
350
14C
  3
D2
350
14D
1001
ACAD
1000
TREAT_AS_HARD
1070
     0
  0
DICTIONARY
  5
2A
102
{ACAD_REACTORS
330
C
102
}
330
C
100
AcDbDictionary
  3
2DWIREFRAME
350
2F
  3
3D_HIDDEN
350
31
  3
3DWIREFRAME
350
30
  3
BASIC
350
32
  3
BRIGHTEN
350
36
  3
COLORCHANGE
350
3A
  3
CONCEPTUAL
350
34
  3
DIM
350
35
  3
FACEPATTERN
350
39
  3
FLAT
350
2B
  3
FLATWITHEDGES
350
2C
  3
GOURAUD
350
2D
  3
GOURAUDWITHEDGES
350
2E
  3
LINEPATTERN
350
38
  3
REALISTIC
350
33
  3
THICKEN
350
37
1001
ACAD
1000
TREAT_AS_HARD
1070
     0
  0
DICTIONARY
  5
17E
102
{ACAD_REACTORS
330
C
102
}
330
C
100
AcDbDictionary
  3
CANNOSCALE
350
183
  3
PSOLHEIGHT
350
182
  3
PSOLWIDTH
350
181
1001
ACAD
1000
TREAT_AS_HARD
1070
     0
  0
MLINESTYLE
  5
18
102
{ACAD_REACTORS
330
17
102
}
330
17
100
AcDbMlineStyle
  2
Standard
 70
     0
  3

 62
   256
 51
90.0
 52
90.0
 71
     2
 49
0.5
 62
   256
  6
BYLAYER
 49
-0.5
 62
   256
  6
BYLAYER
  0
ACAD_PROXY_OBJECT
  5
12D
102
{ACAD_REACTORS
330
12C
102
}
330
12C
100
AcDbZombieObject
 90
      499
 91
      502
 93
       41
310
903313A31580
  0
ACAD_PROXY_OBJECT
  5
12E
102
{ACAD_REACTORS
330
12C
102
}
330
12C
100
AcDbZombieObject
 90
      499
 91
      502
 93
      105
310
903313A324000000000000004000
  0
ACAD_PROXY_OBJECT
  5
12F
102
{ACAD_REACTORS
330
12C
102
}
330
12C
100
AcDbZombieObject
 90
      499
 91
      502
 93
      105
310
903313A344000000000000104000
  0
ACAD_PROXY_OBJECT
  5
130
102
{ACAD_REACTORS
330
12C
102
}
330
12C
100
AcDbZombieObject
 90
      499
 91
      502
 93
      105
310
903313A354000000000000144000
  0
ACAD_PROXY_OBJECT
  5
131
102
{ACAD_REACTORS
330
12C
102
}
330
12C
100
AcDbZombieObject
 90
      499
 91
      502
 93
      105
310
903313A384000000000000204000
  0
ACAD_PROXY_OBJECT
  5
132
102
{ACAD_REACTORS
330
12C
102
}
330
12C
100
AcDbZombieObject
 90
      499
 91
      502
 93
      113
310
904313A31304000000000000244000
  0
ACAD_PROXY_OBJECT
  5
133
102
{ACAD_REACTORS
330
12C
102
}
330
12C
100
AcDbZombieObject
 90
      499
 91
      502
 93
      113
310
904313A31364000000000000304000
  0
ACAD_PROXY_OBJECT
  5
134
102
{ACAD_REACTORS
330
12C
102
}
330
12C
100
AcDbZombieObject
 90
      499
 91
      502
 93
      113
310
904313A32304000000000000344000
  0
ACAD_PROXY_OBJECT
  5
135
102
{ACAD_REACTORS
330
12C
102
}
330
12C
100
AcDbZombieObject
 90
      499
 91
      502
 93
      113
310
904313A333040000000000003E4000
  0
ACAD_PROXY_OBJECT
  5
136
102
{ACAD_REACTORS
330
12C
102
}
330
12C
100
AcDbZombieObject
 90
      499
 91
      502
 93
      113
310
904313A34304000000000000444000
  0
ACAD_PROXY_OBJECT
  5
137
102
{ACAD_REACTORS
330
12C
102
}
330
12C
100
AcDbZombieObject
 90
      499
 91
      502
 93
      113
310
904313A35304000000000000494000
  0
ACAD_PROXY_OBJECT
  5
138
102
{ACAD_REACTORS
330
12C
102
}
330
12C
100
AcDbZombieObject
 90
      499
 91
      502
 93
      121
310
905313A3130304000000000000594000
  0
ACAD_PROXY_OBJECT
  5
139
102
{ACAD_REACTORS
330
12C
102
}
330
12C
100
AcDbZombieObject
 90
      499
 91
      502
 93
      105
310
903323A310000000000000010100
  0
ACAD_PROXY_OBJECT
  5
13A
102
{ACAD_REACTORS
330
12C
102
}
330
12C
100
AcDbZombieObject
 90
      499
 91
      502
 93
      105
310
903343A310000000000000410100
  0
ACAD_PROXY_OBJECT
  5
13B
102
{ACAD_REACTORS
330
12C
102
}
330
12C
100
AcDbZombieObject
 90
      499
 91
      502
 93
      105
310
903383A310000000000000810100
  0
ACAD_PROXY_OBJECT
  5
13C
102
{ACAD_REACTORS
330
12C
102
}
330
12C
100
AcDbZombieObject
 90
      499
 91
      502
 93
      113
310
90431303A310000000000000910100
  0
ACAD_PROXY_OBJECT
  5
13D
102
{ACAD_REACTORS
330
12C
102
}
330
12C
100
AcDbZombieObject
 90
      499
 91
      502
 93
      121
310
9053130303A310000000000001650100
  0
ACAD_PROXY_OBJECT
  5
13E
102
{ACAD_REACTORS
330
12C
102
}
330
12C
100
AcDbZombieObject
 90
      499
 91
      502
 93
      257
310
90E312F31323822203D2031272D3022000000000000200FC000000000000284000
  0
ACAD_PROXY_OBJECT
  5
13F
102
{ACAD_REACTORS
330
12C
102
}
330
12C
100
AcDbZombieObject
 90
      499
 91
      502
 93
      249
310
90D312F363422203D2031272D3022000000000000240FC000000000000284000
  0
ACAD_PROXY_OBJECT
  5
140
102
{ACAD_REACTORS
330
12C
102
}
330
12C
100
AcDbZombieObject
 90
      499
 91
      502
 93
      249
310
90D312F333222203D2031272D3022000000000000280FC000000000000284000
  0
ACAD_PROXY_OBJECT
  5
141
102
{ACAD_REACTORS
330
12C
102
}
330
12C
100
AcDbZombieObject
 90
      499
 91
      502
 93
      249
310
90D312F313622203D2031272D30220000000000002C0FC000000000000284000
  0
ACAD_PROXY_OBJECT
  5
142
102
{ACAD_REACTORS
330
12C
102
}
330
12C
100
AcDbZombieObject
 90
      499
 91
      502
 93
      249
310
90D332F333222203D2031272D30220000000000002E0FC000000000000284000
  0
ACAD_PROXY_OBJECT
  5
143
102
{ACAD_REACTORS
330
12C
102
}
330
12C
100
AcDbZombieObject
 90
      499
 91
      502
 93
      241
310
90C312F3822203D2031272D3022000000000000300FC000000000000284000
  0
ACAD_PROXY_OBJECT
  5
144
102
{ACAD_REACTORS
330
12C
102
}
330
12C
100
AcDbZombieObject
 90
      499
 91
      502
 93
      249
310
90D332F313622203D2031272D3022000000000000320FC000000000000284000
  0
ACAD_PROXY_OBJECT
  5
145
102
{ACAD_REACTORS
330
12C
102
}
330
12C
100
AcDbZombieObject
 90
      499
 91
      502
 93
      241
310
90C312F3422203D2031272D3022000000000000340FC000000000000284000
  0
ACAD_PROXY_OBJECT
  5
146
102
{ACAD_REACTORS
330
12C
102
}
330
12C
100
AcDbZombieObject
 90
      499
 91
      502
 93
      241
310
90C332F3822203D2031272D3022000000000000360FC000000000000284000
  0
ACAD_PROXY_OBJECT
  5
147
102
{ACAD_REACTORS
330
12C
102
}
330
12C
100
AcDbZombieObject
 90
      499
 91
      502
 93
      241
310
90C312F3222203D2031272D3022000000000000380FC000000000000284000
  0
ACAD_PROXY_OBJECT
  5
148
102
{ACAD_REACTORS
330
12C
102
}
330
12C
100
AcDbZombieObject
 90
      499
 91
      502
 93
      241
310
90C332F3422203D2031272D30220000000000003A0FC000000000000284000
  0
ACAD_PROXY_OBJECT
  5
149
102
{ACAD_REACTORS
330
12C
102
}
330
12C
100
AcDbZombieObject
 90
      499
 91
      502
 93
      161
310
90A3122203D2031272D30224000000000000284000
  0
ACAD_PROXY_OBJECT
  5
14A
102
{ACAD_REACTORS
330
12C
102
}
330
12C
100
AcDbZombieObject
 90
      499
 91
      502
 93
      257
310
90E312D312F3222203D2031272D30220000000000003E0FC000000000000284000
  0
ACAD_PROXY_OBJECT
  5
14B
102
{ACAD_REACTORS
330
12C
102
}
330
12C
100
AcDbZombieObject
 90
      499
 91
      502
 93
      225
310
90A3322203D2031272D302200000000000002100000000000000284000
  0
ACAD_PROXY_OBJECT
  5
14C
102
{ACAD_REACTORS
330
12C
102
}
330
12C
100
AcDbZombieObject
 90
      499
 91
      502
 93
      225
310
90A3622203D2031272D302200000000000006100000000000000284000
  0
ACAD_PROXY_OBJECT
  5
14D
102
{ACAD_REACTORS
330
12C
102
}
330
12C
100
AcDbZombieObject
 90
      499
 91
      502
 93
      249
310
90D31272D3022203D2031272D30220000000000000A100000000000000284000
  0
ACAD_PROXY_OBJECT
  5
2F
102
{ACAD_REACTORS
330
2A
102
}
330
2A
100
AcDbZombieObject
 90
      499
 91
      501
 93
      436
310
42CC9915DA5C99599C985B595049028333333333333E3BF0000000000000FB0107901411070040501600405405064090741402480A0340
1001
ACAD
1000
AcDbSavedByObjectVersion
1070
     0
  0
ACAD_PROXY_OBJECT
  5
31
102
{ACAD_REACTORS
330
2A
102
}
330
2A
100
AcDbZombieObject
 90
      499
 91
      501
 93
      500
310
424CD108121A5919195B90640502408333333333333E3BF0000000000000FB01079024090700405020000000000001110200405405064090740C02480A0340
1001
ACAD
1000
AcDbSavedByObjectVersion
1070
     0
  0
ACAD_PROXY_OBJECT
  5
30
102
{ACAD_REACTORS
330
2A
102
}
330
2A
100
AcDbZombieObject
 90
      499
 91
      501
 93
      436
310
42CCD915DA5C99599C985B595059028333333333333E3BF0000000000000FB0107901411070040501600405405064090741402480A0340
1001
ACAD
1000
AcDbSavedByObjectVersion
1070
     0
  0
ACAD_PROXY_OBJECT
  5
32
102
{ACAD_REACTORS
330
2A
102
}
330
2A
100
AcDbZombieObject
 90
      499
 91
      501
 93
      388
310
4150985CDA58D07406404333333333333E3BF0000000000000FB0107A41107004050150841D405064090741402480A0350
1001
ACAD
1000
AcDbSavedByObjectVersion
1070
     0
  0
ACAD_PROXY_OBJECT
  5
36
102
{ACAD_REACTORS
330
2A
102
}
330
2A
100
AcDbZombieObject
 90
      499
 91
      501
 93
      428
310
42109C9A59DA1D195B90C409028333333333333E3BF0000000000000FB010790141107004050150841D405064090741402480A029950
1001
ACAD
1000
AcDbSavedByObjectVersion
1070
     0
  0
ACAD_PROXY_OBJECT
  5
3A
102
{ACAD_REACTORS
330
2A
102
}
330
2A
100
AcDbZombieObject
 90
      499
 91
      501
 93
      452
310
42D0DBDB1BDC90DA185B99D95104090240C333333333333E3BF0000000000000FB0108901411070040501508421405064090741402480A0350
1001
ACAD
1000
AcDbSavedByObjectVersion
1070
     0
  0
ACAD_PROXY_OBJECT
  5
34
102
{ACAD_REACTORS
330
2A
102
}
330
2A
100
AcDbZombieObject
 90
      499
 91
      501
 93
      500
310
4290DBDB98D95C1D1D585B10940D028333333333333E3BF0000000000000FB0107902409070040501000000000000111010841D405064090740C02480A0340
1001
ACAD
1000
AcDbSavedByObjectVersion
1070
     0
  0
ACAD_PROXY_OBJECT
  5
35
102
{ACAD_REACTORS
330
2A
102
}
330
2A
100
AcDbZombieObject
 90
      499
 91
      501
 93
      412
310
40D11A5B50B409028333333333333E3BF0000000000000FB010790141107004050150841D405064090741402480A02677FFFFFD0
1001
ACAD
1000
AcDbSavedByObjectVersion
1070
     0
  0
ACAD_PROXY_OBJECT
  5
39
102
{ACAD_REACTORS
330
2A
102
}
330
2A
100
AcDbZombieObject
 90
      499
 91
      501
 93
      444
310
42D19858D95C185D1D195C9B90F409028333333333333E3BF0000000000000FB010790141107004050150841D405064090741402480A0350
1001
ACAD
1000
AcDbSavedByObjectVersion
1070
     0
  0
ACAD_PROXY_OBJECT
  5
2B
102
{ACAD_REACTORS
330
2A
102
}
330
2A
100
AcDbZombieObject
 90
      499
 91
      501
 93
      388
310
41119B185D240901404333333333333E3BF0000000000000F9010740A41107004050150841D405064090741402480A1B50
1001
ACAD
1000
AcDbSavedByObjectVersion
1070
     0
  0
ACAD_PROXY_OBJECT
  5
2C
102
{ACAD_REACTORS
330
2A
102
}
330
2A
100
AcDbZombieObject
 90
      499
 91
      501
 93
      476
310
43519B185D15DA5D1A115919D95CD0140901404333333333333E3BF0000000000000F9010740901411070040501600405405064090741402480A1B50
1001
ACAD
1000
AcDbSavedByObjectVersion
1070
     0
  0
ACAD_PROXY_OBJECT
  5
2D
102
{ACAD_REACTORS
330
2A
102
}
330
2A
100
AcDbZombieObject
 90
      499
 91
      501
 93
      412
310
41D1DBDD5C985D5910240902404333333333333E3BF0000000000000F9010740A411070040501641D405064090741402480A1B50
1001
ACAD
1000
AcDbSavedByObjectVersion
1070
     0
  0
ACAD_PROXY_OBJECT
  5
2E
102
{ACAD_REACTORS
330
2A
102
}
330
2A
100
AcDbZombieObject
 90
      499
 91
      501
 93
      500
310
4411DBDD5C985D5915DA5D1A115919D95CD0340902404333333333333E3BF0000000000000F9010740901411070040501600405405064090741402480A1B50
1001
ACAD
1000
AcDbSavedByObjectVersion
1070
     0
  0
ACAD_PROXY_OBJECT
  5
38
102
{ACAD_REACTORS
330
2A
102
}
330
2A
100
AcDbZombieObject
 90
      499
 91
      501
 93
      444
310
42D31A5B995C185D1D195C9B90E409028333333333333E3BF0000000000000FB010790141107004050750841D405064090741402483A0350
1001
ACAD
1000
AcDbSavedByObjectVersion
1070
     0
  0
ACAD_PROXY_OBJECT
  5
33
102
{ACAD_REACTORS
330
2A
102
}
330
2A
100
AcDbZombieObject
 90
      499
 91
      501
 93
      420
310
425499585B1A5CDD1A58D08409028333333333333E3BF0000000000000FB01079019070040501508421405064090741402480A1B40
1001
ACAD
1000
AcDbSavedByObjectVersion
1070
     0
  0
ACAD_PROXY_OBJECT
  5
37
102
{ACAD_REACTORS
330
2A
102
}
330
2A
100
AcDbZombieObject
 90
      499
 91
      501
 93
      412
310
41D51A1A58DAD95B90D409028333333333333E3BF0000000000000FB010790141107004050150C41D405064090741402480A0350
1001
ACAD
1000
AcDbSavedByObjectVersion
1070
     0
  0
DICTIONARYVAR
  5
183
102
{ACAD_REACTORS
330
17E
102
}
330
17E
100
DictionaryVariables
280
     0
  1
1:1
  0
DICTIONARYVAR
  5
182
102
{ACAD_REACTORS
330
17E
102
}
330
17E
100
DictionaryVariables
280
     0
  1
80.000000
  0
DICTIONARYVAR
  5
181
102
{ACAD_REACTORS
330
17E
102
}
330
17E
100
DictionaryVariables
280
     0
  1
5.000000
  0
ENDSEC
  0
EOF
