  0
SECTION
  2
HEADER
  9
$ACADVER
  1
AC1012
  9
$DWGCODEPAGE
  3
ansi_932
  9
$INSBASE
 10
0.0
 20
0.0
 30
0.0
  9
$EXTMIN
 10
0.0
 20
0.0
 30
0.0
  9
$EXTMAX
 10
210.0
 20
297.0
 30
0.0
  9
$LIMMIN
 10
0.0
 20
0.0
  9
$LIMMAX
 10
210.0
 20
297.0
  9
$ORTHOMODE
 70
     0
  9
$REGENMODE
 70
     1
  9
$FILLMODE
 70
     1
  9
$QTEXTMODE
 70
     0
  9
$MIRRTEXT
 70
     1
  9
$DRAGMODE
 70
     2
  9
$LTSCALE
 40
1.0
  9
$OSMODE
 70
    37
  9
$ATTMODE
 70
     1
  9
$TEXTSIZE
 40
2.5
  9
$TRACEWID
 40
1.0
  9
$TEXTSTYLE
  7
STANDARD
  9
$CLAYER
  8
0
  9
$CELTYPE
  6
BYLAYER
  9
$CECOLOR
 62
   256
  9
$CELTSCALE
 40
1.0
  9
$DELOBJ
 70
     1
  9
$DISPSILH
 70
     0
  9
$DIMSCALE
 40
1.0
  9
$DIMASZ
 40
2.5
  9
$DIMEXO
 40
0.625
  9
$DIMDLI
 40
3.75
  9
$DIMRND
 40
0.0
  9
$DIMDLE
 40
0.0
  9
$DIMEXE
 40
1.25
  9
$DIMTP
 40
0.0
  9
$DIMTM
 40
0.0
  9
$DIMTXT
 40
2.5
  9
$DIMCEN
 40
2.5
  9
$DIMTSZ
 40
0.0
  9
$DIMTOL
 70
     0
  9
$DIMLIM
 70
     0
  9
$DIMTIH
 70
     0
  9
$DIMTOH
 70
     0
  9
$DIMSE1
 70
     0
  9
$DIMSE2
 70
     0
  9
$DIMTAD
 70
     1
  9
$DIMZIN
 70
     8
  9
$DIMBLK
  1

  9
$DIMASO
 70
     1
  9
$DIMSHO
 70
     1
  9
$DIMPOST
  1

  9
$DIMAPOST
  1

  9
$DIMALT
 70
     0
  9
$DIMALTD
 70
     3
  9
$DIMALTF
 40
0.0393700787
  9
$DIMLFAC
 40
1.0
  9
$DIMTOFL
 70
     1
  9
$DIMTVP
 40
0.0
  9
$DIMTIX
 70
     0
  9
$DIMSOXD
 70
     0
  9
$DIMSAH
 70
     0
  9
$DIMBLK1
  1

  9
$DIMBLK2
  1

  9
$DIMSTYLE
  2
ISO-25
  9
$DIMCLRD
 70
     0
  9
$DIMCLRE
 70
     0
  9
$DIMCLRT
 70
     0
  9
$DIMTFAC
 40
1.0
  9
$DIMGAP
 40
0.625
  9
$DIMJUST
 70
     0
  9
$DIMSD1
 70
     0
  9
$DIMSD2
 70
     0
  9
$DIMTOLJ
 70
     0
  9
$DIMTZIN
 70
     8
  9
$DIMALTZ
 70
     0
  9
$DIMALTTZ
 70
     0
  9
$DIMFIT
 70
     3
  9
$DIMUPT
 70
     0
  9
$DIMUNIT
 70
     2
  9
$DIMDEC
 70
     2
  9
$DIMTDEC
 70
     2
  9
$DIMALTU
 70
     2
  9
$DIMALTTD
 70
     3
  9
$DIMTXSTY
  7
STANDARD
  9
$DIMAUNIT
 70
     0
  9
$LUNITS
 70
     2
  9
$LUPREC
 70
     4
  9
$SKETCHINC
 40
1.0
  9
$FILLETRAD
 40
10.0
  9
$AUNITS
 70
     0
  9
$AUPREC
 70
     0
  9
$MENU
  1
.
  9
$ELEVATION
 40
0.0
  9
$PELEVATION
 40
0.0
  9
$THICKNESS
 40
0.0
  9
$LIMCHECK
 70
     0
  9
$CHAMFERA
 40
10.0
  9
$CHAMFERB
 40
10.0
  9
$CHAMFERC
 40
20.0
  9
$CHAMFERD
 40
0.0
  9
$SKPOLY
 70
     0
  9
$TDCREATE
 40
2457073.387009769
  9
$TDUPDATE
 40
2457073.38700978
  9
$TDINDWG
 40
0.0000000116
  9
$TDUSRTIMER
 40
0.0000000116
  9
$USRTIMER
 70
     1
  9
$ANGBASE
 50
0.0
  9
$ANGDIR
 70
     0
  9
$PDMODE
 70
     0
  9
$PDSIZE
 40
0.0
  9
$PLINEWID
 40
0.0
  9
$COORDS
 70
     1
  9
$SPLFRAME
 70
     0
  9
$SPLINETYPE
 70
     6
  9
$SPLINESEGS
 70
     8
  9
$ATTDIA
 70
     0
  9
$ATTREQ
 70
     1
  9
$HANDLING
 70
     1
  9
$HANDSEED
  5
213
  9
$SURFTAB1
 70
     6
  9
$SURFTAB2
 70
     6
  9
$SURFTYPE
 70
     6
  9
$SURFU
 70
     6
  9
$SURFV
 70
     6
  9
$UCSNAME
  2

  9
$UCSORG
 10
0.0
 20
0.0
 30
0.0
  9
$UCSXDIR
 10
1.0
 20
0.0
 30
0.0
  9
$UCSYDIR
 10
0.0
 20
1.0
 30
0.0
  9
$PUCSNAME
  2

  9
$PUCSORG
 10
0.0
 20
0.0
 30
0.0
  9
$PUCSXDIR
 10
1.0
 20
0.0
 30
0.0
  9
$PUCSYDIR
 10
0.0
 20
1.0
 30
0.0
  9
$USERI1
 70
     0
  9
$USERI2
 70
     0
  9
$USERI3
 70
     0
  9
$USERI4
 70
     0
  9
$USERI5
 70
     0
  9
$USERR1
 40
0.0
  9
$USERR2
 40
0.0
  9
$USERR3
 40
0.0
  9
$USERR4
 40
0.0
  9
$USERR5
 40
0.0
  9
$WORLDVIEW
 70
     1
  9
$SHADEDGE
 70
     3
  9
$SHADEDIF
 70
    70
  9
$TILEMODE
 70
     1
  9
$MAXACTVP
 70
    64
  9
$PINSBASE
 10
0.0
 20
0.0
 30
0.0
  9
$PLIMCHECK
 70
     0
  9
$PEXTMIN
 10
0.0
 20
0.0
 30
0.0
  9
$PEXTMAX
 10
210.0
 20
297.0
 30
0.0
  9
$PLIMMIN
 10
0.0
 20
0.0
  9
$PLIMMAX
 10
210.0
 20
297.0
  9
$UNITMODE
 70
     0
  9
$VISRETAIN
 70
     1
  9
$PLINEGEN
 70
     0
  9
$PSLTSCALE
 70
     1
  9
$TREEDEPTH
 70
  3020
  9
$PICKSTYLE
 70
     1
  9
$CMLSTYLE
  2
STANDARD
  9
$CMLJUST
 70
     0
  9
$CMLSCALE
 40
20.0
  9
$SAVEIMAGES
 70
     1
  0
ENDSEC
  0
SECTION
  2
CLASSES
  0
CLASS
  1
ACDBDICTIONARYWDFLT
  2
AcDbDictionaryWithDefault
  3
ObjectDBX Classes
 90
    32768
280
     0
281
     0
  0
CLASS
  1
VISUALSTYLE
  2
AcDbVisualStyle
  3
ObjectDBX Classes
 90
     4095
280
     0
281
     0
  0
CLASS
  1
SCALE
  2
AcDbScale
  3
ObjectDBX Classes
 90
     1153
280
     0
281
     0
  0
CLASS
  1
DICTIONARYVAR
  2
AcDbDictionaryVar
  3
ObjectDBX Classes
 90
        0
280
     0
281
     0
  0
CLASS
  1
XRECORD
  2
AcDbXrecord
  3
AutoCAD 2000
 90
    32768
280
     0
281
     0
  0
CLASS
  1
LWPOLYLINE
  2
AcDbPolyline
  3
AutoCAD 2000
 90
    32768
280
     0
281
     1
  0
CLASS
  1
HATCH
  2
AcDbHatch
  3
AutoCAD 2000
 90
    32768
280
     0
281
     1
  0
CLASS
  1
ACDBPLACEHOLDER
  2
AcDbPlaceHolder
  3
ObjectDBX Classes
 90
        0
280
     0
281
     0
  0
CLASS
  1
LAYOUT
  2
AcDbLayout
  3
ObjectDBX Classes
 90
        0
280
     0
281
     0
  0
ENDSEC
  0
SECTION
  2
TABLES
  0
TABLE
  2
VPORT
  5
8
330
0
100
AcDbSymbolTable
 70
     1
  0
VPORT
  5
29
330
8
100
AcDbSymbolTableRecord
100
AcDbViewportTableRecord
  2
*ACTIVE
 70
     0
 10
0.0
 20
0.0
 11
1.0
 21
1.0
 12
344.1869158879
 22
148.5
 13
0.0
 23
0.0
 14
10.0
 24
10.0
 15
10.0
 25
10.0
 16
0.0
 26
0.0
 36
1.0
 17
0.0
 27
0.0
 37
0.0
 40
297.0
 41
1.9729729729
 42
50.0
 43
0.0
 44
0.0
 50
0.0
 51
0.0
 71
     0
 72
   100
 73
     1
 74
     3
 75
     0
 76
     0
 77
     0
 78
     0
  0
ENDTAB
  0
TABLE
  2
LTYPE
  5
5
330
0
100
AcDbSymbolTable
 70
     2
  0
LTYPE
  5
14
330
5
100
AcDbSymbolTableRecord
100
AcDbLinetypeTableRecord
  2
BYBLOCK
 70
     0
  3

 72
    65
 73
     0
 40
0.0
  0
LTYPE
  5
15
330
5
100
AcDbSymbolTableRecord
100
AcDbLinetypeTableRecord
  2
BYLAYER
 70
     0
  3

 72
    65
 73
     0
 40
0.0
  0
LTYPE
  5
16
330
5
100
AcDbSymbolTableRecord
100
AcDbLinetypeTableRecord
  2
CONTINUOUS
 70
     0
  3
Solid line
 72
    65
 73
     0
 40
0.0
  0
LTYPE
  5
14B
330
5
100
AcDbSymbolTableRecord
100
AcDbLinetypeTableRecord
  2
CENTER2
 70
     0
  3
Center (.5x) ___ _ ___ _ ___ _ ___ _ ___ _ ___
 72
    65
 73
     4
 40
28.575
 49
19.05
 74
     4
 75
     0
340
0
 46
0.0
 50
0.0
 44
0.0
 45
0.0
 49
-3.175
 74
     4
 75
     0
340
0
 46
0.0
 50
0.0
 44
0.0
 45
0.0
 49
3.175
 74
     4
 75
     0
340
0
 46
0.0
 50
0.0
 44
0.0
 45
0.0
 49
-3.175
 74
     4
 75
     0
340
0
 46
0.0
 50
0.0
 44
0.0
 45
0.0
  0
ENDTAB
  0
TABLE
  2
LAYER
  5
2
330
0
100
AcDbSymbolTable
 70
     3
  0
LAYER
  5
10
330
2
100
AcDbSymbolTableRecord
100
AcDbLayerTableRecord
  2
0
 70
     0
 62
     7
  6
CONTINUOUS
  0
LAYER
  5
3B
330
2
100
AcDbSymbolTableRecord
100
AcDbLayerTableRecord
  2
DEFAULT
 70
     0
 62
     7
  6
CONTINUOUS
  0
LAYER
  5
3E
330
2
100
AcDbSymbolTableRecord
100
AcDbLayerTableRecord
  2
DV1_デフォルト
 70
     0
 62
     7
  6
CONTINUOUS
  0
ENDTAB
  0
TABLE
  2
STYLE
  5
3
330
0
100
AcDbSymbolTable
 70
     3
  0
STYLE
  5
11
330
3
100
AcDbSymbolTableRecord
100
AcDbTextStyleTableRecord
  2
STANDARD
 70
     0
 40
0.0
 41
1.0
 50
0.0
 71
     0
 42
2.5
  3
txt
  4

  0
STYLE
  5
17E
330
3
100
AcDbSymbolTableRecord
100
AcDbTextStyleTableRecord
  2
SEACAD_SEMECA1_TTF
 70
     0
 40
0.0
 41
1.0
 50
0.0
 71
     0
 42
0.2
  3
semeca1.ttf
  4

  0
STYLE
  5
180
330
3
100
AcDbSymbolTableRecord
100
AcDbTextStyleTableRecord
  2
SEACAD_SEANSI_TTF
 70
     0
 40
0.0
 41
1.0
 50
0.0
 71
     0
 42
0.2
  3
seansi.ttf
  4

  0
ENDTAB
  0
TABLE
  2
VIEW
  5
6
330
0
100
AcDbSymbolTable
 70
     0
  0
ENDTAB
  0
TABLE
  2
UCS
  5
7
330
0
100
AcDbSymbolTable
 70
     0
  0
ENDTAB
  0
TABLE
  2
APPID
  5
9
330
0
100
AcDbSymbolTable
 70
     1
  0
APPID
  5
12
330
9
100
AcDbSymbolTableRecord
100
AcDbRegAppTableRecord
  2
ACAD
 70
     0
  0
ENDTAB
  0
TABLE
  2
DIMSTYLE
  5
A
330
0
100
AcDbSymbolTable
 70
     1
  0
DIMSTYLE
105
27
330
A
100
AcDbSymbolTableRecord
100
AcDbDimStyleTableRecord
  2
ISO-25
 70
     0
  3

  4

  5

  6

  7

 40
1.0
 41
2.5
 42
0.625
 43
3.75
 44
1.25
 45
0.0
 46
0.0
 47
0.0
 48
0.0
140
2.5
141
2.5
142
0.0
143
0.0393700787
144
1.0
145
0.0
146
1.0
147
0.625
 71
     0
 72
     0
 73
     0
 74
     0
 75
     0
 76
     0
 77
     1
 78
     8
170
     0
171
     3
172
     1
173
     0
174
     0
175
     0
176
     0
177
     0
178
     0
270
     2
271
     2
272
     2
273
     2
274
     3
340
11
275
     0
280
     0
281
     0
282
     0
283
     0
284
     8
285
     0
286
     0
287
     3
288
     0
  0
ENDTAB
  0
TABLE
  2
BLOCK_RECORD
  5
1
330
0
100
AcDbSymbolTable
 70
    10
  0
BLOCK_RECORD
  5
1F
330
1
100
AcDbSymbolTableRecord
100
AcDbBlockTableRecord
  2
*MODEL_SPACE
  0
BLOCK_RECORD
  5
1B
330
1
100
AcDbSymbolTableRecord
100
AcDbBlockTableRecord
  2
*PAPER_SPACE
  0
BLOCK_RECORD
  5
3C
330
1
100
AcDbSymbolTableRecord
100
AcDbBlockTableRecord
  2
SE
  0
BLOCK_RECORD
  5
155
330
1
100
AcDbSymbolTableRecord
100
AcDbBlockTableRecord
  2
GDIMGGROUP
  0
BLOCK_RECORD
  5
184
330
1
100
AcDbSymbolTableRecord
100
AcDbBlockTableRecord
  2
GDIMGGROUP1
  0
BLOCK_RECORD
  5
190
330
1
100
AcDbSymbolTableRecord
100
AcDbBlockTableRecord
  2
GDIMGGROUP2
  0
BLOCK_RECORD
  5
19A
330
1
100
AcDbSymbolTableRecord
100
AcDbBlockTableRecord
  2
GDIMGGROUP3
  0
BLOCK_RECORD
  5
1A4
330
1
100
AcDbSymbolTableRecord
100
AcDbBlockTableRecord
  2
GDIMGGROUP4
  0
BLOCK_RECORD
  5
1AE
330
1
100
AcDbSymbolTableRecord
100
AcDbBlockTableRecord
  2
GDIMGGROUP5
  0
BLOCK_RECORD
  5
1B8
330
1
100
AcDbSymbolTableRecord
100
AcDbBlockTableRecord
  2
GDIMGGROUP6
  0
BLOCK_RECORD
  5
1C2
330
1
100
AcDbSymbolTableRecord
100
AcDbBlockTableRecord
  2
GDIMGGROUP7
  0
ENDTAB
  0
ENDSEC
  0
SECTION
  2
BLOCKS
  0
BLOCK
  5
20
330
1F
100
AcDbEntity
  8
0
100
AcDbBlockBegin
  2
*MODEL_SPACE
 70
     0
 10
0.0
 20
0.0
 30
0.0
  3
*MODEL_SPACE
  1

  0
ENDBLK
  5
21
330
1F
100
AcDbEntity
  8
0
100
AcDbBlockEnd
  0
BLOCK
  5
1C
330
1B
100
AcDbEntity
 67
     1
  8
0
100
AcDbBlockBegin
  2
*PAPER_SPACE
 70
     0
 10
0.0
 20
0.0
 30
0.0
  3
*PAPER_SPACE
  1

  0
ENDBLK
  5
1D
330
1B
100
AcDbEntity
 67
     1
  8
0
100
AcDbBlockEnd
  0
BLOCK
  5
153
330
3C
100
AcDbEntity
  8
0
100
AcDbBlockBegin
  2
SE
 70
     0
 10
0.0
 20
0.0
 30
0.0
  3
SE
  1

  0
LINE
  5
3F
330
3C
100
AcDbEntity
  8
DV1_デフォルト
  6
CONTINUOUS
 62
     7
100
AcDbLine
 10
136.353301465
 20
174.5652030253
 30
0.0
 11
136.353301465
 21
152.5652030253
 31
0.0
  0
LINE
  5
40
330
3C
100
AcDbEntity
  8
DV1_デフォルト
  6
CONTINUOUS
 62
     7
100
AcDbLine
 10
136.153301465
 20
174.7652030253
 30
0.0
 11
136.153301465
 21
152.3652030253
 31
0.0
  0
LINE
  5
41
330
3C
100
AcDbEntity
  8
DV1_デフォルト
  6
CONTINUOUS
 62
     7
100
AcDbLine
 10
105.153301465
 20
184.3652030253
 30
0.0
 11
105.153301465
 21
142.7652030253
 31
0.0
  0
LINE
  5
42
330
3C
100
AcDbEntity
  8
DV1_デフォルト
  6
CONTINUOUS
 62
     7
100
AcDbLine
 10
104.953301465
 20
184.5652030253
 30
0.0
 11
104.953301465
 21
163.8152030253
 31
0.0
  0
LINE
  5
43
330
3C
100
AcDbEntity
  8
DV1_デフォルト
  6
CONTINUOUS
 62
     7
100
AcDbLine
 10
104.953301465
 20
163.3152030253
 30
0.0
 11
104.953301465
 21
142.5652030253
 31
0.0
  0
LINE
  5
44
330
3C
100
AcDbEntity
  8
DV1_デフォルト
  6
CONTINUOUS
 62
     7
100
AcDbLine
 10
97.253301465
 20
184.5652030253
 30
0.0
 11
97.253301465
 21
163.8152030253
 31
0.0
  0
LINE
  5
45
330
3C
100
AcDbEntity
  8
DV1_デフォルト
  6
CONTINUOUS
 62
     7
100
AcDbLine
 10
97.253301465
 20
163.3152030253
 30
0.0
 11
97.253301465
 21
142.5652030253
 31
0.0
  0
LINE
  5
46
330
3C
100
AcDbEntity
  8
DV1_デフォルト
  6
CONTINUOUS
 62
     7
100
AcDbLine
 10
97.053301465
 20
184.3652030253
 30
0.0
 11
97.053301465
 21
142.7652030253
 31
0.0
  0
LINE
  5
47
330
3C
100
AcDbEntity
  8
DV1_デフォルト
  6
CONTINUOUS
 62
     7
100
AcDbLine
 10
105.1045497891
 20
163.6652030253
 30
0.0
 11
104.953301465
 21
163.8152030253
 31
0.0
  0
SPLINE
  5
48
330
3C
100
AcDbEntity
  8
DV1_デフォルト
  6
CONTINUOUS
 62
     7
100
AcDbSpline
210
0.0
220
0.0
230
1.0
 70
     8
 71
     3
 72
    11
 73
     7
 74
     0
 42
0.0000000499996797
 43
0.0000000001
 40
0.0
 40
0.0
 40
0.0
 40
0.0
 40
0.1254224009687007
 40
0.1254224009687007
 40
0.1254224009687007
 40
1.0
 40
1.0
 40
1.0
 40
1.0
 10
105.1045497890715
 20
163.4652030252699
 30
0.0
 10
105.1045898953845
 20
163.4735646908842
 30
0.0
 10
105.1046249715971
 20
163.4819263821383
 30
0.0
 10
105.1046550175189
 20
163.4902880899545
 30
0.0
 10
105.1048645220683
 20
163.5485927025413
 30
0.0
 10
105.1048294428331
 20
163.6068987069494
 30
0.0
 10
105.1045497890715
 20
163.6652030252699
 30
0.0
  0
LINE
  5
49
330
3C
100
AcDbEntity
  8
DV1_デフォルト
  6
CONTINUOUS
 62
     7
100
AcDbLine
 10
104.953301465
 20
163.3152030253
 30
0.0
 11
105.1045497891
 21
163.4652030253
 31
0.0
  0
LINE
  5
4A
330
3C
100
AcDbEntity
  8
DV1_デフォルト
  6
CONTINUOUS
 62
     7
100
AcDbLine
 10
97.1020531409
 20
163.4652030253
 30
0.0
 11
105.1045497891
 21
163.4652030253
 31
0.0
  0
LINE
  5
4B
330
3C
100
AcDbEntity
  8
DV1_デフォルト
  6
CONTINUOUS
 62
     7
100
AcDbLine
 10
97.1020531409
 20
163.4652030253
 30
0.0
 11
97.253301465
 21
163.3152030253
 31
0.0
  0
LINE
  5
4C
330
3C
100
AcDbEntity
  8
DV1_デフォルト
  6
CONTINUOUS
 62
     7
100
AcDbLine
 10
97.1020531409
 20
163.6652030253
 30
0.0
 11
105.1045497891
 21
163.6652030253
 31
0.0
  0
SPLINE
  5
4D
330
3C
100
AcDbEntity
  8
DV1_デフォルト
  6
CONTINUOUS
 62
     7
100
AcDbSpline
210
0.0
220
0.0
230
1.0
 70
     8
 71
     3
 72
    11
 73
     7
 74
     0
 42
0.0000000499996797
 43
0.0000000001
 40
0.0
 40
0.0
 40
0.0
 40
0.0
 40
0.8745775990312984
 40
0.8745775990312984
 40
0.8745775990312984
 40
1.0
 40
1.0
 40
1.0
 40
1.0
 10
97.10205314092165
 20
163.6652030252699
 30
0.0
 10
97.10177348715999
 20
163.6068987069494
 30
0.0
 10
97.10173840792477
 20
163.5485927025413
 30
0.0
 10
97.10194791247422
 20
163.4902880899545
 30
0.0
 10
97.10197795839599
 20
163.4819263821383
 30
0.0
 10
97.1020130346086
 20
163.4735646908842
 30
0.0
 10
97.10205314092165
 20
163.4652030252699
 30
0.0
  0
LINE
  5
4E
330
3C
100
AcDbEntity
  8
DV1_デフォルト
  6
CONTINUOUS
 62
     7
100
AcDbLine
 10
97.253301465
 20
163.8152030253
 30
0.0
 11
104.953301465
 21
163.8152030253
 31
0.0
  0
LINE
  5
4F
330
3C
100
AcDbEntity
  8
DV1_デフォルト
  6
CONTINUOUS
 62
     7
100
AcDbLine
 10
97.253301465
 20
163.8152030253
 30
0.0
 11
97.1020531409
 21
163.6652030253
 31
0.0
  0
LINE
  5
50
330
3C
100
AcDbEntity
  8
DV1_デフォルト
  6
CONTINUOUS
 62
     7
100
AcDbLine
 10
97.253301465
 20
163.3152030253
 30
0.0
 11
104.953301465
 21
163.3152030253
 31
0.0
  0
LINE
  5
51
330
3C
100
AcDbEntity
  8
DV1_デフォルト
  6
CONTINUOUS
 62
     7
100
AcDbLine
 10
136.153301465
 20
152.3652030253
 30
0.0
 11
136.353301465
 21
152.5652030253
 31
0.0
  0
LINE
  5
52
330
3C
100
AcDbEntity
  8
DV1_デフォルト
  6
CONTINUOUS
 62
     7
100
AcDbLine
 10
136.353301465
 20
174.5652030253
 30
0.0
 11
136.153301465
 21
174.7652030253
 31
0.0
  0
LINE
  5
53
330
3C
100
AcDbEntity
  8
DV1_デフォルト
  6
CONTINUOUS
 62
     7
100
AcDbLine
 10
134.453301465
 20
152.3652030253
 30
0.0
 11
136.153301465
 21
152.3652030253
 31
0.0
  0
LINE
  5
54
330
3C
100
AcDbEntity
  8
DV1_デフォルト
  6
CONTINUOUS
 62
     7
100
AcDbLine
 10
136.153301465
 20
174.7652030253
 30
0.0
 11
134.453301465
 21
174.7652030253
 31
0.0
  0
LINE
  5
55
330
3C
100
AcDbEntity
  8
DV1_デフォルト
  6
CONTINUOUS
 62
     7
100
AcDbLine
 10
105.153301465
 20
143.4152030253
 30
0.0
 11
105.653301465
 21
143.4152030253
 31
0.0
  0
LINE
  5
56
330
3C
100
AcDbEntity
  8
DV1_デフォルト
  6
CONTINUOUS
 62
     7
100
AcDbLine
 10
105.653301465
 20
183.7152030253
 30
0.0
 11
105.153301465
 21
183.7152030253
 31
0.0
  0
LINE
  5
57
330
3C
100
AcDbEntity
  8
DV1_デフォルト
  6
CONTINUOUS
 62
     7
100
AcDbLine
 10
104.953301465
 20
142.5652030253
 30
0.0
 11
105.153301465
 21
142.7652030253
 31
0.0
  0
LINE
  5
58
330
3C
100
AcDbEntity
  8
DV1_デフォルト
  6
CONTINUOUS
 62
     7
100
AcDbLine
 10
105.153301465
 20
184.3652030253
 30
0.0
 11
104.953301465
 21
184.5652030253
 31
0.0
  0
LINE
  5
59
330
3C
100
AcDbEntity
  8
DV1_デフォルト
  6
CONTINUOUS
 62
     7
100
AcDbLine
 10
97.253301465
 20
142.5652030253
 30
0.0
 11
104.953301465
 21
142.5652030253
 31
0.0
  0
LINE
  5
5A
330
3C
100
AcDbEntity
  8
DV1_デフォルト
  6
CONTINUOUS
 62
     7
100
AcDbLine
 10
104.953301465
 20
184.5652030253
 30
0.0
 11
97.253301465
 21
184.5652030253
 31
0.0
  0
SPLINE
  5
5B
330
3C
100
AcDbEntity
  8
DV1_デフォルト
  6
CONTINUOUS
 62
     7
100
AcDbSpline
210
0.0
220
0.0
230
1.0
 70
     8
 71
     3
 72
    12
 73
     8
 74
     0
 42
0.0000000117021209
 43
0.0000000001
 40
0.0
 40
0.0
 40
0.0
 40
0.0
 40
0.2171913010159233
 40
0.4343796786245757
 40
0.6516439164369443
 40
0.868957574399087
 40
0.9999999999999999
 40
0.9999999999999999
 40
0.9999999999999999
 40
0.9999999999999999
 10
100.9533014649965
 20
145.7387759836316
 30
0.0
 10
101.0391495627165
 20
145.734910499617
 30
0.0
 10
101.1860460883979
 20
145.7263763365392
 30
0.0
 10
101.399727656452
 20
145.6630226380849
 30
0.0
 10
101.557893331571
 20
145.5706267356591
 30
0.0
 10
101.6372379253945
 20
145.4721646407397
 30
0.0
 10
101.6523210690625
 20
145.4087459814942
 30
0.0
 10
101.6531797081406
 20
145.3849867866403
 30
0.0
  0
SPLINE
  5
5C
330
3C
100
AcDbEntity
  8
DV1_デフォルト
  6
CONTINUOUS
 62
     7
100
AcDbSpline
210
0.0
220
0.0
230
1.0
 70
     8
 71
     3
 72
    13
 73
     9
 74
     0
 42
0.0000000116100426
 43
0.0000000001
 40
0.0
 40
0.0
 40
0.0
 40
0.0
 40
0.0052124298878815
 40
0.2200288934595184
 40
0.434845940100793
 40
0.6497668334235611
 40
0.8647329267272069
 40
1.0
 40
1.0
 40
1.0
 40
1.0
 10
100.2533036514112
 20
145.3792711104036
 30
0.0
 10
100.2533064908862
 20
145.3802256501179
 30
0.0
 10
100.2537582295744
 20
145.4205283622523
 30
0.0
 10
100.2823722804044
 20
145.5008512126529
 30
0.0
 10
100.4008644307384
 20
145.6082188055184
 30
0.0
 10
100.5797283117804
 20
145.6900971753402
 30
0.0
 10
100.7796742190695
 20
145.7327705560918
 30
0.0
 10
100.8991345031562
 20
145.7372505866956
 30
0.0
 10
100.9533014649965
 20
145.7387759836316
 30
0.0
  0
SPLINE
  5
5D
330
3C
100
AcDbEntity
  8
DV1_デフォルト
  6
CONTINUOUS
 62
     7
100
AcDbSpline
210
0.0
220
0.0
230
1.0
 70
     8
 71
     3
 72
    17
 73
    13
 74
     0
 42
0.0000000057766469
 43
0.0000000001
 40
0.0
 40
0.0
 40
0.0
 40
0.0
 40
0.0423325444254114
 40
0.1489859332087098
 40
0.2556612727356554
 40
0.3623882977449679
 40
0.4691161177016315
 40
0.5757925239139201
 40
0.6824455820775298
 40
0.7891397770580891
 40
0.8958753978435292
 40
1.0
 40
1.0
 40
1.0
 40
1.0
 10
101.6531797081405
 20
181.7580425792377
 30
0.0
 10
101.6537444496595
 20
181.7424492651684
 30
0.0
 10
101.6484009417945
 20
181.6873003944917
 30
0.0
 10
101.5947472497843
 20
181.5939352435241
 30
0.0
 10
101.4553047779796
 20
181.4931910715808
 30
0.0
 10
101.2592573236199
 20
181.4210023768791
 30
0.0
 10
101.0286873157285
 20
181.3866487053533
 30
0.0
 10
100.7896684116946
 20
181.3946191757378
 30
0.0
 10
100.5691325211556
 20
181.4438350086022
 30
0.0
 10
100.3918531717777
 20
181.5279193486151
 30
0.0
 10
100.2787288897618
 20
181.6353833397112
 30
0.0
 10
100.253189412999
 20
181.7139405031826
 30
0.0
 10
100.2533036514112
 20
181.7523379232289
 30
0.0
  0
LINE
  5
5E
330
3C
100
AcDbEntity
  8
DV1_デフォルト
  6
CONTINUOUS
 62
     7
100
AcDbLine
 10
97.253301465
 20
184.5652030253
 30
0.0
 11
97.053301465
 21
184.3652030253
 31
0.0
  0
LINE
  5
5F
330
3C
100
AcDbEntity
  8
DV1_デフォルト
  6
CONTINUOUS
 62
     7
100
AcDbLine
 10
97.053301465
 20
142.7652030253
 30
0.0
 11
97.253301465
 21
142.5652030253
 31
0.0
  0
LINE
  5
60
330
3C
100
AcDbEntity
  8
DV1_デフォルト
  6
CONTINUOUS
 62
     7
100
AcDbLine
 10
96.553301465
 20
143.4152030253
 30
0.0
 11
97.053301465
 21
143.4152030253
 31
0.0
  0
LINE
  5
61
330
3C
100
AcDbEntity
  8
DV1_デフォルト
  6
CONTINUOUS
 62
     7
100
AcDbLine
 10
97.053301465
 20
183.7152030253
 30
0.0
 11
96.553301465
 21
183.7152030253
 31
0.0
  0
ELLIPSE
  5
62
330
3C
100
AcDbEntity
  8
DV1_デフォルト
  6
CONTINUOUS
 62
     7
100
AcDbEllipse
 10
113.453301465
 20
144.9889581141
 30
0.0
 11
-1.000000002384285
 21
2.165383880939709E-32
 31
0.0
210
0.0
220
0.0
230
1.0
 40
0.5
 41
3.091059546049883
 42
6.283185307179586
  0
ELLIPSE
  5
63
330
3C
100
AcDbEntity
  8
DV1_デフォルト
  6
CONTINUOUS
 62
     7
100
AcDbEllipse
 10
113.453301465
 20
144.9889581141
 30
0.0
 11
-1.000000002384285
 21
2.165383880939709E-32
 31
0.0
210
0.0
220
0.0
230
1.0
 40
0.5
 41
0.0
 42
0.0505331075401921
  0
ELLIPSE
  5
64
330
3C
100
AcDbEntity
  8
DV1_デフォルト
  6
CONTINUOUS
 62
     7
100
AcDbEllipse
 10
113.3118801156
 20
154.8775393804
 30
0.0
 11
5.365817750259622
 21
-10.73163526292348
 31
0.0
210
0.0
220
0.0
230
1.0
 40
0.6123724373
 41
-0.6547105418323085
 42
-0.6313531411702629
  0
ELLIPSE
  5
65
330
3C
100
AcDbEntity
  8
DV1_デフォルト
  6
CONTINUOUS
 62
     7
100
AcDbEllipse
 10
113.9058498258
 20
154.7219760552
 30
0.0
 11
-5.358925266474017
 21
-10.71785050575056
 31
0.0
210
0.0
220
0.0
230
1.0
 40
0.6123724358
 41
0.6680280080597457
 42
0.7014104002283867
  0
ELLIPSE
  5
66
330
3C
100
AcDbEntity
  8
DV1_デフォルト
  6
CONTINUOUS
 62
     7
100
AcDbEllipse
 10
113.5947228278
 20
155.0189607333
 30
0.0
 11
5.365817750777982
 21
-10.73163525928651
 31
0.0
210
0.0
220
0.0
230
0.9999999999999998
 40
0.6123724373
 41
-0.654710542002789
 42
-0.6313531413367759
  0
SPLINE
  5
67
330
3C
100
AcDbEntity
  8
DV1_デフォルト
  6
CONTINUOUS
 62
     7
100
AcDbSpline
210
0.0
220
0.0
230
1.0
 70
     8
 71
     3
 72
    20
 73
    16
 74
     0
 42
0.0000000641416445
 43
0.0000000001
 40
0.0
 40
0.0
 40
0.0
 40
0.0
 40
0.2137444315573367
 40
0.2137444315573367
 40
0.2137444315573367
 40
0.4286117530380567
 40
0.4286117530380567
 40
0.4286117530380567
 40
0.6433699458012424
 40
0.6433699458012424
 40
0.6433699458012424
 40
0.8580793715253078
 40
0.8580793715253078
 40
0.8580793715253078
 40
1.0
 40
1.0
 40
1.0
 40
1.0
 10
113.849281262461
 20
144.6186356705861
 30
0.0
 10
113.8366922609379
 20
144.6118783027697
 30
0.0
 10
113.8260896633269
 20
144.604026919314
 30
0.0
 10
113.8183442092004
 20
144.595724191348
 30
0.0
 10
113.8105581784232
 20
144.5873779673018
 30
0.0
 10
113.805446095853
 20
144.5783457870745
 30
0.0
 10
113.8034330540326
 20
144.569376190594
 30
0.0
 10
113.8014210133376
 20
144.5604110548704
 30
0.0
 10
113.8024494164839
 20
144.5512611345885
 30
0.0
 10
113.8064327760926
 20
144.5426844270997
 30
0.0
 10
113.810415285659
 20
144.5341095498662
 30
0.0
 10
113.8174610977243
 20
144.5258712425034
 30
0.0
 10
113.8269854864458
 20
144.5186508086143
 30
0.0
 10
113.8333309279698
 20
144.5138403328597
 30
0.0
 10
113.8408561341109
 20
144.5094014374619
 30
0.0
 10
113.849281262461
 20
144.5054985855963
 30
0.0
  0
ELLIPSE
  5
68
330
3C
100
AcDbEntity
  8
DV1_デフォルト
  6
CONTINUOUS
 62
     7
100
AcDbEllipse
 10
113.5947228178
 20
154.8775396746
 30
0.0
 11
-5.365817728511662
 21
-10.7316355787326
 31
0.0
210
0.0
220
0.0
230
1.0
 40
0.6123724354
 41
0.7147278692048643
 42
0.7380852695379837
  0
ELLIPSE
  5
69
330
3C
100
AcDbEntity
  8
DV1_デフォルト
  6
CONTINUOUS
 62
     7
100
AcDbEllipse
 10
113.9058498258
 20
155.1745244135
 30
0.0
 11
5.35892526670044
 21
-10.71785050302367
 31
0.0
210
0.0
220
0.0
230
0.9999999999999999
 40
0.6123724358
 41
-0.7014104003628319
 42
-0.6680280081901273
  0
ELLIPSE
  5
6A
330
3C
100
AcDbEntity
  8
DV1_デフォルト
  6
CONTINUOUS
 62
     7
100
AcDbEllipse
 10
113.3118801056
 20
155.0189610306
 30
0.0
 11
-5.365817728627025
 21
-10.73163557854684
 31
0.0
210
0.0
220
0.0
230
1.0
 40
0.6123724354
 41
0.7147278692112038
 42
0.7380852695445977
  0
ARC
  5
6B
330
3C
100
AcDbEntity
  8
DV1_デフォルト
  6
CONTINUOUS
 62
     7
100
AcDbCircle
 10
113.453301465
 20
144.9996411947
 30
0.0
 40
0.2649539082290845
100
AcDbArc
 50
244.7222549179
 51
295.2777450821
  0
ELLIPSE
  5
6C
330
3C
100
AcDbEntity
  8
DV1_デフォルト
  6
CONTINUOUS
 62
     7
100
AcDbEllipse
 10
113.5947228138
 20
155.0189607287
 30
0.0
 11
5.365817759452009
 21
-10.73163525386761
 31
0.0
210
0.0
220
0.0
230
1.0
 40
0.6123724364
 41
-0.7380852858734892
 42
-0.714727885194467
  0
ELLIPSE
  5
6D
330
3C
100
AcDbEntity
  8
DV1_デフォルト
  6
CONTINUOUS
 62
     7
100
AcDbEllipse
 10
113.0007531042
 20
155.1745244135
 30
0.0
 11
-5.358925266730097
 21
-10.71785050305285
 31
0.0
210
0.0
220
0.0
230
1.0
 40
0.6123724358
 41
0.6680280081879822
 42
0.7014104003606834
  0
ELLIPSE
  5
6E
330
3C
100
AcDbEntity
  8
DV1_デフォルト
  6
CONTINUOUS
 62
     7
100
AcDbEllipse
 10
113.3118801122
 20
154.8775396819
 30
0.0
 11
5.365817727858159
 21
-10.73163558661681
 31
0.0
210
0.0
220
0.0
230
0.9999999999999999
 40
0.6123724353
 41
-0.7380852691376756
 42
-0.7147278688128278
  0
SPLINE
  5
6F
330
3C
100
AcDbEntity
  8
DV1_デフォルト
  6
CONTINUOUS
 62
     7
100
AcDbSpline
210
0.0
220
0.0
230
1.0
 70
     8
 71
     3
 72
    20
 73
    16
 74
     0
 42
0.0000000641393446
 43
0.0000000001
 40
0.0
 40
0.0
 40
0.0
 40
0.0
 40
0.213744431557404
 40
0.213744431557404
 40
0.213744431557404
 40
0.4286117530381285
 40
0.4286117530381285
 40
0.4286117530381285
 40
0.6433699458013189
 40
0.6433699458013189
 40
0.6433699458013189
 40
0.8580793715253859
 40
0.8580793715253859
 40
0.8580793715253859
 40
1.0
 40
1.0
 40
1.0
 40
1.0
 10
113.0573216675321
 20
144.5054985855963
 30
0.0
 10
113.0699106690552
 20
144.5113303078014
 30
0.0
 10
113.0805132666662
 20
144.5184021643729
 30
0.0
 10
113.0882587207927
 20
144.5261354460162
 30
0.0
 10
113.0960447515698
 20
144.5339092405414
 30
0.0
 10
113.1011568341401
 20
144.5425656012189
 30
0.0
 10
113.1031698759605
 20
144.5513872065347
 30
0.0
 10
113.1051819166555
 20
144.5602044246928
 30
0.0
 10
113.1041535135092
 20
144.5694299473175
 30
0.0
 10
113.1001701539005
 20
144.5782994993358
 30
0.0
 10
113.0961876443341
 20
144.5871671586063
 30
0.0
 10
113.0891418322687
 20
144.5959234567435
 30
0.0
 10
113.0796174435473
 20
144.6038441457647
 30
0.0
 10
113.0732720020233
 20
144.6091211530859
 30
0.0
 10
113.0657467958822
 20
144.6141133348744
 30
0.0
 10
113.0573216675321
 20
144.6186356705862
 30
0.0
  0
ELLIPSE
  5
70
330
3C
100
AcDbEntity
  8
DV1_デフォルト
  6
CONTINUOUS
 62
     7
100
AcDbEllipse
 10
113.3118801016
 20
155.0189607287
 30
0.0
 11
-5.365817750721831
 21
-10.73163525446081
 31
0.0
210
0.0
220
0.0
230
0.9999999999999998
 40
0.6123724374
 41
0.6313531415595723
 42
0.6547105422303715
  0
ELLIPSE
  5
71
330
3C
100
AcDbEntity
  8
DV1_デフォルト
  6
CONTINUOUS
 62
     7
100
AcDbEllipse
 10
113.0007531042
 20
154.7219760502
 30
0.0
 11
5.358925266922085
 21
-10.71785050034669
 31
0.0
210
0.0
220
0.0
230
0.9999999999999999
 40
0.6123724359
 41
-0.7014104004937121
 42
-0.6680280083169334
  0
ELLIPSE
  5
72
330
3C
100
AcDbEntity
  8
DV1_デフォルト
  6
CONTINUOUS
 62
     7
100
AcDbEllipse
 10
113.5947228152
 20
154.8775393922
 30
0.0
 11
-5.365817749813266
 21
-10.73163527555373
 31
0.0
210
0.0
220
0.0
230
0.9999999999999998
 40
0.6123724372
 41
0.6313531405862925
 42
0.6547105412355468
  0
ARC
  5
73
330
3C
100
AcDbEntity
  8
DV1_デフォルト
  6
CONTINUOUS
 62
     7
100
AcDbCircle
 10
113.453301465
 20
144.083025816
 30
0.0
 40
0.3029684751411512
100
AcDbArc
 50
68.0727777629
 51
111.9272222371
  0
LINE
  5
74
330
3C
100
AcDbEntity
  8
DV1_デフォルト
  6
CONTINUOUS
 62
     7
100
AcDbLine
 10
113.1421744604
 20
144.2751967808
 30
0.0
 11
113.1421744604
 21
144.4321656345
 31
0.0
  0
LINE
  5
75
330
3C
100
AcDbEntity
  8
DV1_デフォルト
  6
CONTINUOUS
 62
     7
100
AcDbLine
 10
113.7644284696
 20
144.2751967808
 30
0.0
 11
113.7644284696
 21
144.4321656345
 31
0.0
  0
ELLIPSE
  5
76
330
3C
100
AcDbEntity
  8
DV1_デフォルト
  6
CONTINUOUS
 62
     7
100
AcDbEllipse
 10
113.453301465
 20
144.4745714445
 30
0.0
 11
0.1600291457890604
 21
-3.465245319459690E-33
 31
0.0
210
0.0
220
0.0
230
1.0
 40
0.5
 41
0.7855802748211718
 42
2.356012378768622
  0
LINE
  5
77
330
3C
100
AcDbEntity
  8
DV1_デフォルト
  6
CONTINUOUS
 62
     7
100
AcDbLine
 10
113.34016438
 20
144.5311605943
 30
0.0
 11
113.1421744604
 21
144.4321656345
 31
0.0
  0
LINE
  5
78
330
3C
100
AcDbEntity
  8
DV1_デフォルト
  6
CONTINUOUS
 62
     7
100
AcDbLine
 10
113.1421744604
 20
144.4321656345
 30
0.0
 11
113.0251578632
 21
144.4906739331
 31
0.0
  0
ELLIPSE
  5
79
330
3C
100
AcDbEntity
  8
DV1_デフォルト
  6
CONTINUOUS
 62
     7
100
AcDbEllipse
 10
112.9441837872
 20
144.729150493
 30
0.0
 11
-0.1600005623866932
 21
3.464626379073681E-33
 31
0.0
210
0.0
220
0.0
230
1.0
 40
0.5
 41
3.141592653589793
 42
3.926987302088838
  0
LINE
  5
7A
330
3C
100
AcDbEntity
  8
DV1_デフォルト
  6
CONTINUOUS
 62
     7
100
AcDbLine
 10
113.0573216675
 20
144.7857190355
 30
0.0
 11
113.0177253169
 21
144.8055172108
 31
0.0
  0
LINE
  5
7B
330
3C
100
AcDbEntity
  8
DV1_デフォルト
  6
CONTINUOUS
 62
     7
100
AcDbLine
 10
113.8888776131
 20
144.8055172108
 30
0.0
 11
113.8492812625
 21
144.7857190355
 31
0.0
  0
ELLIPSE
  5
7C
330
3C
100
AcDbEntity
  8
DV1_デフォルト
  6
CONTINUOUS
 62
     7
100
AcDbEllipse
 10
113.9624191428
 20
144.729150493
 30
0.0
 11
0.1600005623866758
 21
-3.464626379073307E-33
 31
0.0
210
0.0
220
0.0
230
1.0
 40
0.5
 41
2.356198005090731
 42
3.141592653589793
  0
LINE
  5
7D
330
3C
100
AcDbEntity
  8
DV1_デフォルト
  6
CONTINUOUS
 62
     7
100
AcDbLine
 10
113.8814450668
 20
144.4906739331
 30
0.0
 11
113.7644284696
 21
144.4321656345
 31
0.0
  0
LINE
  5
7E
330
3C
100
AcDbEntity
  8
DV1_デフォルト
  6
CONTINUOUS
 62
     7
100
AcDbLine
 10
113.7644284696
 20
144.4321656345
 30
0.0
 11
113.56643855
 21
144.5311605943
 31
0.0
  0
LINE
  5
7F
330
3C
100
AcDbEntity
  8
DV1_デフォルト
  6
CONTINUOUS
 62
     7
100
AcDbLine
 10
112.753301465
 20
145.3786695458
 30
0.0
 11
112.753301465
 21
145.3460295372
 31
0.0
  0
LINE
  5
80
330
3C
100
AcDbEntity
  8
DV1_デフォルト
  6
CONTINUOUS
 62
     7
100
AcDbLine
 10
114.153301465
 20
145.3460295372
 30
0.0
 11
114.153301465
 21
145.3786695458
 31
0.0
  0
SPLINE
  5
81
330
3C
100
AcDbEntity
  8
DV1_デフォルト
  6
CONTINUOUS
 62
     7
100
AcDbSpline
210
0.0
220
0.0
230
1.0
 70
     8
 71
     3
 72
    12
 73
     8
 74
     0
 42
0.0000000111860197
 43
0.0000000001
 40
0.0
 40
0.0
 40
0.0
 40
0.0
 40
0.2034312950639814
 40
0.4068598519311555
 40
0.6103594629308551
 40
0.8139053631006276
 40
1.0
 40
1.0
 40
1.0
 40
1.0
 10
113.4533014649965
 20
145.7387759836305
 30
0.0
 10
113.3674533672765
 20
145.7349104996159
 30
0.0
 10
113.2205568415952
 20
145.7263763365381
 30
0.0
 10
113.0068752735411
 20
145.6630226380838
 30
0.0
 10
112.8487095984221
 20
145.570626735658
 30
0.0
 10
112.7598766000087
 20
145.4603900742767
 30
0.0
 10
112.7496982273499
 20
145.3840135291328
 30
0.0
 10
112.7559471105628
 20
145.3483409066374
 30
0.0
  0
SPLINE
  5
82
330
3C
100
AcDbEntity
  8
DV1_デフォルト
  6
CONTINUOUS
 62
     7
100
AcDbSpline
210
0.0
220
0.0
230
1.0
 70
     8
 71
     3
 72
    13
 73
     9
 74
     0
 42
0.000000011610066
 43
0.0000000001
 40
0.0
 40
0.0
 40
0.0
 40
0.0
 40
0.0052093439646072
 40
0.2200264739168327
 40
0.4348441869404993
 40
0.649765746967806
 40
0.8647325071162044
 40
1.0
 40
1.0
 40
1.0
 40
1.0
 10
114.153299273504
 20
145.3792728146337
 30
0.0
 10
114.1532964263664
 20
145.3802267865346
 30
0.0
 10
114.1528444962931
 20
145.4205289352545
 30
0.0
 10
114.1242306495887
 20
145.5008512126518
 30
0.0
 10
114.0057384992547
 20
145.6082188055173
 30
0.0
 10
113.8268746182127
 20
145.6900971753391
 30
0.0
 10
113.6269287109236
 20
145.7327705560907
 30
0.0
 10
113.5074684268369
 20
145.7372505866944
 30
0.0
 10
113.4533014649965
 20
145.7387759836305
 30
0.0
  0
LINE
  5
83
330
3C
100
AcDbEntity
  8
DV1_デフォルト
  6
CONTINUOUS
 62
     7
100
AcDbLine
 10
112.4545779884
 20
144.9637023123
 30
0.0
 11
112.4800867344
 21
144.7115208167
 31
0.0
  0
LINE
  5
84
330
3C
100
AcDbEntity
  8
DV1_デフォルト
  6
CONTINUOUS
 62
     7
100
AcDbLine
 10
114.4265161956
 20
144.7115208167
 30
0.0
 11
114.4520249416
 21
144.9637023123
 31
0.0
  0
SPLINE
  5
85
330
3C
100
AcDbEntity
  8
DV1_デフォルト
  6
CONTINUOUS
 62
     7
100
AcDbSpline
210
0.0
220
0.0
230
1.0
 70
     8
 71
     3
 72
    25
 73
    21
 74
     0
 42
0.0000000041164896
 43
0.0000000001
 40
0.0
 40
0.0
 40
0.0
 40
0.0
 40
0.0155002061240053
 40
0.0662152472065781
 40
0.1172442485042603
 40
0.1711329169633
 40
0.2292048852858855
 40
0.2905975670505854
 40
0.352814688342186
 40
0.4144845260376402
 40
0.4756245266305664
 40
0.5365362298634466
 40
0.5975673740357752
 40
0.6589891775635058
 40
0.7212354751873864
 40
0.7847772209005286
 40
0.8498468774652607
 40
0.9046274581202336
 40
0.9557240898462449
 40
1.0
 40
1.0
 40
1.0
 40
1.0
 10
112.4831722877074
 20
144.7137477428372
 30
0.0
 10
112.4832454400036
 20
144.7016334614838
 30
0.0
 10
112.4837437620697
 20
144.6573717368951
 30
0.0
 10
112.5147346985565
 20
144.5755422631354
 30
0.0
 10
112.5720747470854
 20
144.4821337165439
 30
0.0
 10
112.6553610404594
 20
144.3974974693573
 30
0.0
 10
112.7626407524689
 20
144.3226652515902
 30
0.0
 10
112.8940199679658
 20
144.259410107128
 30
0.0
 10
113.044684249792
 20
144.2106692250043
 30
0.0
 10
113.20795588513
 20
144.1781814035981
 30
0.0
 10
113.3778734320829
 20
144.1624431422473
 30
0.0
 10
113.5496098131119
 20
144.1634697698664
 30
0.0
 10
113.71853078166
 20
144.1811966711664
 30
0.0
 10
113.880239051485
 20
144.2155421688714
 30
0.0
 10
114.0307347466801
 20
144.2666598220411
 30
0.0
 10
114.1661277160295
 20
144.3351944233893
 30
0.0
 10
114.2757534054212
 20
144.4180589925634
 30
0.0
 10
114.3554721157707
 20
144.5107108048283
 30
0.0
 10
114.4073010445161
 20
144.6076043526155
 30
0.0
 10
114.4186994448069
 20
144.6697542647857
 30
0.0
 10
114.4244628567743
 20
144.703901741279
 30
0.0
  0
LINE
  5
86
330
3C
100
AcDbEntity
  8
DV1_デフォルト
  6
CONTINUOUS
 62
     7
100
AcDbLine
 10
113.1041843496
 20
144.5559454122
 30
0.0
 11
113.1041843496
 21
144.729150493
 31
0.0
  0
LINE
  5
87
330
3C
100
AcDbEntity
  8
DV1_デフォルト
  6
CONTINUOUS
 62
     7
100
AcDbLine
 10
113.8024185804
 20
144.729150493
 30
0.0
 11
113.8024185804
 21
144.5559454122
 31
0.0
  0
LINE
  5
88
330
3C
100
AcDbEntity
  8
DV1_デフォルト
  6
CONTINUOUS
 62
     7
100
AcDbLine
 10
128.1860360691
 20
184.3152030255
 30
0.0
 11
126.7205668609
 21
184.3152030255
 31
0.0
  0
LINE
  5
89
330
3C
100
AcDbEntity
  8
DV1_デフォルト
  6
CONTINUOUS
 62
     7
100
AcDbLine
 10
126.7205668609
 20
142.8152030255
 30
0.0
 11
128.1860360691
 21
142.8152030255
 31
0.0
  0
ARC
  5
8A
330
3C
100
AcDbEntity
  8
DV1_デフォルト
  6
CONTINUOUS
 62
     7
100
AcDbCircle
 10
127.453301465
 20
163.5652030539
 30
0.0
 40
0.7500000000000016
100
AcDbArc
 50
192.3177659828
 51
347.6822340172
  0
ARC
  5
8B
330
3C
100
AcDbEntity
  8
DV1_デフォルト
  6
CONTINUOUS
 62
     7
100
AcDbCircle
 10
127.453301465
 20
163.5652030539
 30
0.0
 40
0.7500000000000013
100
AcDbArc
 50
12.3177659828
 51
167.6822340172
  0
LINE
  5
8C
330
3C
100
AcDbEntity
  8
DV1_デフォルト
  6
CONTINUOUS
 62
     7
100
AcDbLine
 10
128.1860360691
 20
163.7252030539
 30
0.0
 11
126.7205668609
 21
163.7252030539
 31
0.0
  0
LINE
  5
8D
330
3C
100
AcDbEntity
  8
DV1_デフォルト
  6
CONTINUOUS
 62
     7
100
AcDbLine
 10
128.1860360691
 20
163.4052030539
 30
0.0
 11
126.7205668609
 21
163.4052030539
 31
0.0
  0
LINE
  5
8E
330
3C
100
AcDbEntity
  8
DV1_デフォルト
  6
CONTINUOUS
 62
     7
100
AcDbLine
 10
96.553301465
 20
184.3652030253
 30
0.0
 11
96.553301465
 21
142.7652030253
 31
0.0
  0
LINE
  5
8F
330
3C
100
AcDbEntity
  8
DV1_デフォルト
  6
CONTINUOUS
 62
     7
100
AcDbLine
 10
72.953301465
 20
184.3652030253
 30
0.0
 11
72.953301465
 21
142.7652030253
 31
0.0
  0
LINE
  5
90
330
3C
100
AcDbEntity
  8
DV1_デフォルト
  6
CONTINUOUS
 62
     7
100
AcDbLine
 10
73.153301465
 20
184.5652030253
 30
0.0
 11
73.153301465
 21
142.5652030253
 31
0.0
  0
LINE
  5
91
330
3C
100
AcDbEntity
  8
DV1_デフォルト
  6
CONTINUOUS
 62
     7
100
AcDbLine
 10
96.353301465
 20
184.5652030253
 30
0.0
 11
96.353301465
 21
142.5652030253
 31
0.0
  0
SPLINE
  5
92
330
3C
100
AcDbEntity
  8
DV1_デフォルト
  6
CONTINUOUS
 62
     7
100
AcDbSpline
210
0.0
220
0.0
230
1.0
 70
    11
 71
     3
 72
    62
 73
    58
 74
     0
 42
0.0000000030445149
 43
0.0000000001
 40
0.0
 40
0.0
 40
0.0
 40
0.0
 40
0.053685574116295
 40
0.053685574116295
 40
0.053685574116295
 40
0.1073699677365359
 40
0.1073699677365359
 40
0.1073699677365359
 40
0.1610720663589827
 40
0.1610720663589827
 40
0.1610720663589827
 40
0.2147862626100639
 40
0.2147862626100639
 40
0.2147862626100639
 40
0.2684813606212
 40
0.2684813606212
 40
0.2684813606212
 40
0.3221559737262847
 40
0.3221559737262847
 40
0.3221559737262847
 40
0.3758406897849831
 40
0.3758406897849831
 40
0.3758406897849831
 40
0.4295503210396331
 40
0.4295503210396331
 40
0.4295503210396331
 40
0.4832608022405131
 40
0.4832608022405131
 40
0.4832608022405131
 40
0.5369467501508118
 40
0.5369467501508118
 40
0.5369467501508118
 40
0.5906210775316105
 40
0.5906210775316105
 40
0.5906210775316105
 40
0.6443148018091589
 40
0.6443148018091589
 40
0.6443148018091589
 40
0.6980287029493064
 40
0.6980287029493064
 40
0.6980287029493064
 40
0.7517320597746496
 40
0.7517320597746496
 40
0.7517320597746496
 40
0.805410587434782
 40
0.805410587434782
 40
0.805410587434782
 40
0.8590887672304954
 40
0.8590887672304954
 40
0.8590887672304954
 40
0.9127916096582994
 40
0.9127916096582994
 40
0.9127916096582994
 40
0.9665056428301573
 40
0.9665056428301573
 40
0.9665056428301573
 40
1.0
 40
1.0
 40
1.0
 40
1.0
 10
86.97830146499655
 20
181.7517365047431
 30
0.0
 10
86.97830146499655
 20
181.7894999254165
 30
0.0
 10
86.99133787536616
 20
181.8274118260744
 30
0.0
 10
87.01632911145651
 20
181.8623894498516
 30
0.0
 10
87.0413200352021
 20
181.8973666364726
 30
0.0
 10
87.07895373512329
 20
181.9303794215839
 30
0.0
 10
87.12611453381685
 20
181.958843805384
 30
0.0
 10
87.17329063218126
 20
181.9873174234573
 30
0.0
 10
87.23130103125311
 20
182.0120331475447
 30
0.0
 10
87.29534655957252
 20
182.0311175982359
 30
0.0
 10
87.35940564982063
 20
182.0502060901454
 30
0.0
 10
87.43127060378548
 20
182.0641948061216
 30
0.0
 10
87.50498858439367
 20
182.0720453339535
 30
0.0
 10
87.57868057301373
 20
182.0798930937929
 30
0.0
 10
87.65625758405014
 20
182.0818268869732
 30
0.0
 10
87.73129092437408
 20
182.077704435062
 30
0.0
 10
87.80629675131601
 20
182.07358349478
 30
0.0
 10
87.88082894533585
 20
182.0632955182994
 30
0.0
 10
87.94871958947769
 20
182.0476001174572
 30
0.0
 10
88.01662325234777
 20
182.0319017068607
 30
0.0
 10
88.07975518179983
 20
182.0103547830082
 30
0.0
 10
88.13289540053101
 20
181.9845783700232
 30
0.0
 10
88.18605957723504
 20
181.9587903358856
 30
0.0
 10
88.23068935220601
 20
181.9280491941459
 30
0.0
 10
88.26308891216168
 20
181.8947363825706
 30
0.0
 10
88.2954886813403
 20
181.861423355875
 30
0.0
 10
88.31655138068115
 20
181.824612664025
 30
0.0
 10
88.32452891423532
 20
181.7872643223394
 30
0.0
 10
88.33250287685026
 20
181.7499326986855
 30
0.0
 10
88.3276232938726
 20
181.711032393895
 30
0.0
 10
88.31029513691956
 20
181.6738075984646
 30
0.0
 10
88.29297049913576
 20
181.6365903630046
 30
0.0
 10
88.26272557939133
 20
181.6000255588486
 30
0.0
 10
88.22206526763067
 20
181.5672614347086
 30
0.0
 10
88.18139039389565
 20
181.5344855765136
 30
0.0
 10
88.12917149009995
 20
181.5046167877933
 30
0.0
 10
88.06972811760178
 20
181.4802974078165
 30
0.0
 10
88.01026328814797
 20
181.4559692494035
 30
0.0
 10
87.94192762975133
 20
181.4365316100867
 30
0.0
 10
87.87037915904422
 20
181.4237404648917
 30
0.0
 10
87.79884496763543
 20
181.4109518724917
 30
0.0
 10
87.72212505427315
 20
181.4044596767128
 30
0.0
 10
87.64657766558493
 20
181.4048569250859
 30
0.0
 10
87.57106419330661
 20
181.4052539951174
 30
0.0
 10
87.49463969304827
 20
181.4125449095989
 30
0.0
 10
87.42363199187648
 20
181.4260644880544
 30
0.0
 10
87.35262410228103
 20
181.4395841023851
 30
0.0
 10
87.28507523395905
 20
181.4596993436195
 30
0.0
 10
87.22657079852947
 20
181.4845970836755
 30
0.0
 10
87.16804003118716
 20
181.509506029807
 30
0.0
 10
87.11694757012835
 20
181.5398806081979
 30
0.0
 10
87.07752142327676
 20
181.5730365648201
 30
0.0
 10
87.03808758344363
 20
181.6061989909603
 30
0.0
 10
87.00923717426731
 20
181.6430518302076
 30
0.0
 10
86.99336328400148
 20
181.6804230421503
 30
0.0
 10
86.98337840417528
 20
181.7039300120209
 30
0.0
 10
86.97830146499655
 20
181.7279704663907
 30
0.0
 10
86.97830146499655
 20
181.7517365047431
 30
0.0
  0
SPLINE
  5
93
330
3C
100
AcDbEntity
  8
DV1_デフォルト
  6
CONTINUOUS
 62
     7
100
AcDbSpline
210
0.0
220
0.0
230
1.0
 70
    11
 71
     3
 72
    62
 73
    58
 74
     0
 42
0.0000000030444186
 43
0.0000000001
 40
0.0
 40
0.0
 40
0.0
 40
0.0
 40
0.053680031460016
 40
0.053680031460016
 40
0.053680031460016
 40
0.1073591685347753
 40
0.1073591685347753
 40
0.1073591685347753
 40
0.161052899329595
 40
0.161052899329595
 40
0.161052899329595
 40
0.2147668093988356
 40
0.2147668093988356
 40
0.2147668093988356
 40
0.2684701831416988
 40
0.2684701831416988
 40
0.2684701831416988
 40
0.322148734574489
 40
0.322148734574489
 40
0.322148734574489
 40
0.3758269375133795
 40
0.3758269375133795
 40
0.3758269375133795
 40
0.4295297960362001
 40
0.4295297960362001
 40
0.4295297960362001
 40
0.4832438385551261
 40
0.4832438385551261
 40
0.4832438385551261
 40
0.5369381370339156
 40
0.5369381370339156
 40
0.5369381370339156
 40
0.5906125947229709
 40
0.5906125947229709
 40
0.5906125947229709
 40
0.6442980540991523
 40
0.6442980540991523
 40
0.6442980540991523
 40
0.6980082071251795
 40
0.6980082071251795
 40
0.6980082071251795
 40
0.7517182241857234
 40
0.7517182241857234
 40
0.7517182241857234
 40
0.8054034487623536
 40
0.8054034487623536
 40
0.8054034487623536
 40
0.859077929737033
 40
0.859077929737033
 40
0.859077929737033
 40
0.9127724714563061
 40
0.9127724714563061
 40
0.9127724714563061
 40
0.9664865758926527
 40
0.9664865758926527
 40
0.9664865758926527
 40
1.0
 40
1.0
 40
1.0
 40
1.0
 10
88.32452889123473
 20
145.4143976869784
 30
0.0
 10
88.3325020216411
 20
145.3766287207365
 30
0.0
 10
88.32762443452057
 20
145.3380148849904
 30
0.0
 10
88.31030084887188
 20
145.3017326553832
 30
0.0
 10
88.29297741789988
 20
145.2654507497283
 30
0.0
 10
88.26273130622079
 20
145.2304962875098
 30
0.0
 10
88.22206792877502
 20
145.1996370748185
 30
0.0
 10
88.18139352555474
 20
145.1687694947278
 30
0.0
 10
88.12917504977334
 20
145.1411405662542
 30
0.0
 10
88.06973202788357
 20
145.1188633255448
 30
0.0
 10
88.01026754640145
 20
145.0965780425037
 30
0.0
 10
87.94193216793798
 20
145.0790256140322
 30
0.0
 10
87.87038388514621
 20
145.0675158549806
 30
0.0
 10
87.79884987110472
 20
145.0560083913004
 30
0.0
 10
87.72213004740065
 20
145.0502188910587
 30
0.0
 10
87.64658265177336
 20
145.0505739573539
 30
0.0
 10
87.57106916320369
 20
145.0509288642887
 30
0.0
 10
87.49464454991364
 20
145.0574326144432
 30
0.0
 10
87.42363664877746
 20
145.0696062238251
 30
0.0
 10
87.35262856020684
 20
145.0817798653408
 30
0.0
 10
87.28507940010125
 20
145.0999639216354
 30
0.0
 10
87.22657460665975
 20
145.122801646547
 30
0.0
 10
87.16804348875681
 20
145.1456496473826
 30
0.0
 10
87.11695059868819
 20
145.1737937669896
 30
0.0
 10
87.07752398161537
 20
145.2050769305023
 30
0.0
 10
87.03808967628856
 20
145.2363661942825
 30
0.0
 10
87.00923874462801
 20
145.2716668004777
 30
0.0
 10
86.993364317428
 20
145.3081738318578
 30
0.0
 10
86.97749566891594
 20
145.3446675737668
 30
0.0
 10
86.97415667096568
 20
145.3833771889487
 30
0.0
 10
86.98362452484766
 20
145.4211097781071
 30
0.0
 10
86.99308902032213
 20
145.4588289828795
 30
0.0
 10
87.01561154859378
 20
145.4966098059344
 30
0.0
 10
87.04932546579613
 20
145.5312300025216
 30
0.0
 10
87.08304639331227
 20
145.5658573978702
 30
0.0
 10
87.12889237858886
 20
145.5982710360992
 30
0.0
 10
87.18307053406956
 20
145.6256261991017
 30
0.0
 10
87.23727287871318
 20
145.652993575486
 30
0.0
 10
87.30131033153884
 20
145.6760444808596
 30
0.0
 10
87.36988307806962
 20
145.6927083840164
 30
0.0
 10
87.43845503901743
 20
145.7093720962683
 30
0.0
 10
87.51345489888305
 20
145.7201020284112
 30
0.0
 10
87.58866774930055
 20
145.723920177525
 30
0.0
 10
87.66384660390382
 20
145.7277366008554
 30
0.0
 10
87.74131198324464
 20
145.7247511662557
 30
0.0
 10
87.814646841592
 20
145.7152367120549
 30
0.0
 10
87.88796798671403
 20
145.7057240370059
 30
0.0
 10
87.95918170690302
 20
145.6894268621946
 30
0.0
 10
88.02239791035332
 20
145.6678211722129
 30
0.0
 10
88.08563749874193
 20
145.6462074898544
 30
0.0
 10
88.14261763075126
 20
145.6186931736113
 30
0.0
 10
88.18862556347113
 20
145.5877265652452
 30
0.0
 10
88.23464957705059
 20
145.5567491333178
 30
0.0
 10
88.27096304715936
 20
145.5214700842259
 30
0.0
 10
88.29455603618628
 20
145.4849534997353
 30
0.0
 10
88.3094046150082
 20
145.4619712746982
 30
0.0
 10
88.31950774542254
 20
145.4381830105605
 30
0.0
 10
88.32452889123473
 20
145.4143976869784
 30
0.0
  0
ARC
  5
94
330
3C
100
AcDbEntity
  8
DV1_デフォルト
  6
CONTINUOUS
 62
     7
100
AcDbCircle
 10
87.653276145
 20
205.5538431242
 30
0.0
 40
21.00031067986193
100
AcDbArc
 50
268.090026586
 51
271.9102540211
  0
ARC
  5
95
330
3C
100
AcDbEntity
  8
DV1_デフォルト
  6
CONTINUOUS
 62
     7
100
AcDbCircle
 10
92.053301465
 20
205.2000687178
 30
0.0
 40
20.65448334261534
100
AcDbArc
 50
267.5025986955
 51
272.4974013045
  0
LINE
  5
96
330
3C
100
AcDbEntity
  8
DV1_デフォルト
  6
CONTINUOUS
 62
     7
100
AcDbLine
 10
73.153301465
 20
184.5652030253
 30
0.0
 11
72.953301465
 21
184.3652030253
 31
0.0
  0
LINE
  5
97
330
3C
100
AcDbEntity
  8
DV1_デフォルト
  6
CONTINUOUS
 62
     7
100
AcDbLine
 10
72.953301465
 20
142.7652030253
 30
0.0
 11
73.153301465
 21
142.5652030253
 31
0.0
  0
LINE
  5
98
330
3C
100
AcDbEntity
  8
DV1_デフォルト
  6
CONTINUOUS
 62
     7
100
AcDbLine
 10
73.153301465
 20
142.5652030253
 30
0.0
 11
96.353301465
 21
142.5652030253
 31
0.0
  0
LINE
  5
99
330
3C
100
AcDbEntity
  8
DV1_デフォルト
  6
CONTINUOUS
 62
     7
100
AcDbLine
 10
86.9618669372
 20
184.5652030253
 30
0.0
 11
73.153301465
 21
184.5652030253
 31
0.0
  0
LINE
  5
9A
330
3C
100
AcDbEntity
  8
DV1_デフォルト
  6
CONTINUOUS
 62
     7
100
AcDbLine
 10
91.153301465
 20
184.5652030253
 30
0.0
 11
88.353301465
 21
184.5652030253
 31
0.0
  0
LINE
  5
9B
330
3C
100
AcDbEntity
  8
DV1_デフォルト
  6
CONTINUOUS
 62
     7
100
AcDbLine
 10
96.353301465
 20
184.5652030253
 30
0.0
 11
92.953301465
 21
184.5652030253
 31
0.0
  0
LINE
  5
9C
330
3C
100
AcDbEntity
  8
DV1_デフォルト
  6
CONTINUOUS
 62
     7
100
AcDbLine
 10
96.353301465
 20
142.5652030253
 30
0.0
 11
96.553301465
 21
142.7652030253
 31
0.0
  0
LINE
  5
9D
330
3C
100
AcDbEntity
  8
DV1_デフォルト
  6
CONTINUOUS
 62
     7
100
AcDbLine
 10
96.553301465
 20
184.3652030253
 30
0.0
 11
96.353301465
 21
184.5652030253
 31
0.0
  0
ELLIPSE
  5
9E
330
3C
100
AcDbEntity
  8
DV1_デフォルト
  6
CONTINUOUS
 62
     7
100
AcDbEllipse
 10
100.953301465
 20
144.9889581141
 30
0.0
 11
-1.000000002384285
 21
2.165383880939709E-32
 31
0.0
210
0.0
220
0.0
230
1.0
 40
0.5
 41
3.091059546049601
 42
6.283185307179586
  0
ELLIPSE
  5
9F
330
3C
100
AcDbEntity
  8
DV1_デフォルト
  6
CONTINUOUS
 62
     7
100
AcDbEllipse
 10
100.953301465
 20
144.9889581141
 30
0.0
 11
-1.000000002384285
 21
2.165383880939709E-32
 31
0.0
210
0.0
220
0.0
230
1.0
 40
0.5
 41
0.0
 42
0.0505331075399108
  0
ELLIPSE
  5
A0
330
3C
100
AcDbEntity
  8
DV1_デフォルト
  6
CONTINUOUS
 62
     7
100
AcDbEllipse
 10
100.8118801154
 20
154.8775393882
 30
0.0
 11
5.36581774976444
 21
-10.73163527134239
 31
0.0
210
0.0
220
0.0
230
0.9999999999999997
 40
0.6123724373
 41
-0.6547105414333068
 42
-0.6313531407798969
  0
ELLIPSE
  5
A1
330
3C
100
AcDbEntity
  8
DV1_デフォルト
  6
CONTINUOUS
 62
     7
100
AcDbEllipse
 10
101.4058498258
 20
154.7219760578
 30
0.0
 11
-5.358925266258995
 21
-10.71785050849105
 31
0.0
210
0.0
220
0.0
230
1.0
 40
0.6123724358
 41
0.6680280079297201
 42
0.7014104000942395
  0
ELLIPSE
  5
A2
330
3C
100
AcDbEntity
  8
DV1_デフォルト
  6
CONTINUOUS
 62
     7
100
AcDbEllipse
 10
101.0947228279
 20
155.0189607294
 30
0.0
 11
5.365817751007917
 21
-10.73163525511928
 31
0.0
210
0.0
220
0.0
230
1.0
 40
0.6123724374
 41
-0.6547105421983854
 42
-0.631353141528022
  0
SPLINE
  5
A3
330
3C
100
AcDbEntity
  8
DV1_デフォルト
  6
CONTINUOUS
 62
     7
100
AcDbSpline
210
0.0
220
0.0
230
1.0
 70
     8
 71
     3
 72
    20
 73
    16
 74
     0
 42
0.0000000641416445
 43
0.0000000001
 40
0.0
 40
0.0
 40
0.0
 40
0.0
 40
0.2137444315573367
 40
0.2137444315573367
 40
0.2137444315573367
 40
0.4286117530380567
 40
0.4286117530380567
 40
0.4286117530380567
 40
0.6433699458012424
 40
0.6433699458012424
 40
0.6433699458012424
 40
0.8580793715253078
 40
0.8580793715253078
 40
0.8580793715253078
 40
1.0
 40
1.0
 40
1.0
 40
1.0
 10
101.349281262461
 20
144.6186356705861
 30
0.0
 10
101.3366922609379
 20
144.6118783027697
 30
0.0
 10
101.3260896633268
 20
144.604026919314
 30
0.0
 10
101.3183442092004
 20
144.595724191348
 30
0.0
 10
101.3105581784232
 20
144.5873779673018
 30
0.0
 10
101.3054460958529
 20
144.5783457870745
 30
0.0
 10
101.3034330540326
 20
144.569376190594
 30
0.0
 10
101.3014210133376
 20
144.5604110548704
 30
0.0
 10
101.3024494164839
 20
144.5512611345885
 30
0.0
 10
101.3064327760926
 20
144.5426844270997
 30
0.0
 10
101.310415285659
 20
144.5341095498662
 30
0.0
 10
101.3174610977243
 20
144.5258712425034
 30
0.0
 10
101.3269854864457
 20
144.5186508086143
 30
0.0
 10
101.3333309279698
 20
144.5138403328597
 30
0.0
 10
101.3408561341108
 20
144.5094014374619
 30
0.0
 10
101.349281262461
 20
144.5054985855963
 30
0.0
  0
ELLIPSE
  5
A4
330
3C
100
AcDbEntity
  8
DV1_デフォルト
  6
CONTINUOUS
 62
     7
100
AcDbEllipse
 10
101.0947228179
 20
154.8775396744
 30
0.0
 11
-5.365817728512794
 21
-10.73163557856138
 31
0.0
210
0.0
220
0.0
230
1.0
 40
0.6123724354
 41
0.7147278692117257
 42
0.7380852695450474
  0
ELLIPSE
  5
A5
330
3C
100
AcDbEntity
  8
DV1_デフォルト
  6
CONTINUOUS
 62
     7
100
AcDbEllipse
 10
101.4058498258
 20
155.1745244108
 30
0.0
 11
5.358925266920943
 21
-10.71785050009279
 31
0.0
210
0.0
220
0.0
230
1.0
 40
0.6123724359
 41
-0.7014104005063766
 42
-0.6680280083292658
  0
ELLIPSE
  5
A6
330
3C
100
AcDbEntity
  8
DV1_デフォルト
  6
CONTINUOUS
 62
     7
100
AcDbEllipse
 10
100.8118801056
 20
155.018961031
 30
0.0
 11
-5.365817728587696
 21
-10.7316355789169
 31
0.0
210
0.0
220
0.0
230
1.0
 40
0.6123724354
 41
0.7147278691919637
 42
0.7380852695250001
  0
ARC
  5
A7
330
3C
100
AcDbEntity
  8
DV1_デフォルト
  6
CONTINUOUS
 62
     7
100
AcDbCircle
 10
100.953301465
 20
144.9996411947
 30
0.0
 40
0.2649539082290843
100
AcDbArc
 50
244.7222549179
 51
295.2777450821
  0
ELLIPSE
  5
A8
330
3C
100
AcDbEntity
  8
DV1_デフォルト
  6
CONTINUOUS
 62
     7
100
AcDbEllipse
 10
101.0947228249
 20
155.018961038
 30
0.0
 11
5.365817727767682
 21
-10.73163558649869
 31
0.0
210
0.0
220
0.0
230
1.0
 40
0.6123724353
 41
-0.7380852691469899
 42
-0.7147278688221519
  0
ELLIPSE
  5
A9
330
3C
100
AcDbEntity
  8
DV1_デフォルト
  6
CONTINUOUS
 62
     7
100
AcDbEllipse
 10
100.5007531042
 20
155.174524416
 30
0.0
 11
-5.358925266522634
 21
-10.71785050573148
 31
0.0
210
0.0
220
0.0
230
1.0
 40
0.6123724358
 41
0.6680280080597429
 42
0.7014104002284794
  0
ELLIPSE
  5
AA
330
3C
100
AcDbEntity
  8
DV1_デフォルト
  6
CONTINUOUS
 62
     7
100
AcDbEllipse
 10
100.8118801122
 20
154.877539682
 30
0.0
 11
5.365817727852322
 21
-10.73163558668625
 31
0.0
210
0.0
220
0.0
230
1.0
 40
0.6123724353
 41
-0.7380852691341815
 42
-0.7147278688094154
  0
SPLINE
  5
AB
330
3C
100
AcDbEntity
  8
DV1_デフォルト
  6
CONTINUOUS
 62
     7
100
AcDbSpline
210
0.0
220
0.0
230
1.0
 70
     8
 71
     3
 72
    20
 73
    16
 74
     0
 42
0.0000000641393446
 43
0.0000000001
 40
0.0
 40
0.0
 40
0.0
 40
0.0
 40
0.213744431557404
 40
0.213744431557404
 40
0.213744431557404
 40
0.4286117530381285
 40
0.4286117530381285
 40
0.4286117530381285
 40
0.6433699458013189
 40
0.6433699458013189
 40
0.6433699458013189
 40
0.8580793715253859
 40
0.8580793715253859
 40
0.8580793715253859
 40
1.0
 40
1.0
 40
1.0
 40
1.0
 10
100.5573216675321
 20
144.5054985855963
 30
0.0
 10
100.5699106690552
 20
144.5113303078014
 30
0.0
 10
100.5805132666662
 20
144.5184021643729
 30
0.0
 10
100.5882587207926
 20
144.5261354460162
 30
0.0
 10
100.5960447515698
 20
144.5339092405414
 30
0.0
 10
100.6011568341401
 20
144.5425656012189
 30
0.0
 10
100.6031698759605
 20
144.5513872065347
 30
0.0
 10
100.6051819166555
 20
144.5602044246928
 30
0.0
 10
100.6041535135092
 20
144.5694299473175
 30
0.0
 10
100.6001701539004
 20
144.5782994993358
 30
0.0
 10
100.5961876443341
 20
144.5871671586063
 30
0.0
 10
100.5891418322687
 20
144.5959234567435
 30
0.0
 10
100.5796174435473
 20
144.6038441457647
 30
0.0
 10
100.5732720020233
 20
144.6091211530859
 30
0.0
 10
100.5657467958822
 20
144.6141133348744
 30
0.0
 10
100.5573216675321
 20
144.6186356705862
 30
0.0
  0
ELLIPSE
  5
AC
330
3C
100
AcDbEntity
  8
DV1_デフォルト
  6
CONTINUOUS
 62
     7
100
AcDbEllipse
 10
100.8118801019
 20
155.0189607368
 30
0.0
 11
-5.36581775023471
 21
-10.73163526308248
 31
0.0
210
0.0
220
0.0
230
0.9999999999999998
 40
0.6123724373
 41
0.6313531411617465
 42
0.6547105418236702
  0
ELLIPSE
  5
AD
330
3C
100
AcDbEntity
  8
DV1_デフォルト
  6
CONTINUOUS
 62
     7
100
AcDbEllipse
 10
100.5007531041
 20
154.7219760551
 30
0.0
 11
5.358925266542913
 21
-10.71785050566079
 31
0.0
210
0.0
220
0.0
230
0.9999999999999999
 40
0.6123724358
 41
-0.7014104002332973
 42
-0.6680280080644962
  0
ELLIPSE
  5
AE
330
3C
100
AcDbEntity
  8
DV1_デフォルト
  6
CONTINUOUS
 62
     7
100
AcDbEllipse
 10
101.0947228155
 20
154.8775394034
 30
0.0
 11
-5.365817749122963
 21
-10.73163528759063
 31
0.0
210
0.0
220
0.0
230
1.0
 40
0.6123724371
 41
0.6313531400316228
 42
0.6547105406684435
  0
ARC
  5
AF
330
3C
100
AcDbEntity
  8
DV1_デフォルト
  6
CONTINUOUS
 62
     7
100
AcDbCircle
 10
100.953301465
 20
144.083025816
 30
0.0
 40
0.3029684751411718
100
AcDbArc
 50
68.0727777629
 51
111.9272222371
  0
LINE
  5
B0
330
3C
100
AcDbEntity
  8
DV1_デフォルト
  6
CONTINUOUS
 62
     7
100
AcDbLine
 10
100.6421744604
 20
144.2751967808
 30
0.0
 11
100.6421744604
 21
144.4321656345
 31
0.0
  0
LINE
  5
B1
330
3C
100
AcDbEntity
  8
DV1_デフォルト
  6
CONTINUOUS
 62
     7
100
AcDbLine
 10
101.2644284696
 20
144.2751967808
 30
0.0
 11
101.2644284696
 21
144.4321656345
 31
0.0
  0
ELLIPSE
  5
B2
330
3C
100
AcDbEntity
  8
DV1_デフォルト
  6
CONTINUOUS
 62
     7
100
AcDbEllipse
 10
100.953301465
 20
144.4745714445
 30
0.0
 11
0.1600291457890639
 21
-3.465245319459765E-33
 31
0.0
210
0.0
220
0.0
230
1.0
 40
0.5
 41
0.7855802748211933
 42
2.356012378768851
  0
LINE
  5
B3
330
3C
100
AcDbEntity
  8
DV1_デフォルト
  6
CONTINUOUS
 62
     7
100
AcDbLine
 10
100.84016438
 20
144.5311605943
 30
0.0
 11
100.6421744604
 21
144.4321656345
 31
0.0
  0
LINE
  5
B4
330
3C
100
AcDbEntity
  8
DV1_デフォルト
  6
CONTINUOUS
 62
     7
100
AcDbLine
 10
100.6421744604
 20
144.4321656345
 30
0.0
 11
100.5251578632
 21
144.4906739331
 31
0.0
  0
ELLIPSE
  5
B5
330
3C
100
AcDbEntity
  8
DV1_デフォルト
  6
CONTINUOUS
 62
     7
100
AcDbEllipse
 10
100.4441837872
 20
144.729150493
 30
0.0
 11
-0.1600005623866863
 21
-6.938893903907229E-15
 31
0.0
210
0.0
220
0.0
230
1.0
 40
0.5
 41
3.141592653590061
 42
3.926987302088773
  0
LINE
  5
B6
330
3C
100
AcDbEntity
  8
DV1_デフォルト
  6
CONTINUOUS
 62
     7
100
AcDbLine
 10
100.5573216675
 20
144.7857190355
 30
0.0
 11
100.5177253169
 21
144.8055172108
 31
0.0
  0
LINE
  5
B7
330
3C
100
AcDbEntity
  8
DV1_デフォルト
  6
CONTINUOUS
 62
     7
100
AcDbLine
 10
101.3888776131
 20
144.8055172108
 30
0.0
 11
101.3492812625
 21
144.7857190355
 31
0.0
  0
ELLIPSE
  5
B8
330
3C
100
AcDbEntity
  8
DV1_デフォルト
  6
CONTINUOUS
 62
     7
100
AcDbEllipse
 10
101.4624191428
 20
144.729150493
 30
0.0
 11
0.1600005623866793
 21
-3.469446951953615E-15
 31
0.0
210
0.0
220
0.0
230
1.0
 40
0.5
 41
2.35619800509072
 42
3.141592653589836
  0
LINE
  5
B9
330
3C
100
AcDbEntity
  8
DV1_デフォルト
  6
CONTINUOUS
 62
     7
100
AcDbLine
 10
101.3814450668
 20
144.4906739331
 30
0.0
 11
101.2644284696
 21
144.4321656345
 31
0.0
  0
LINE
  5
BA
330
3C
100
AcDbEntity
  8
DV1_デフォルト
  6
CONTINUOUS
 62
     7
100
AcDbLine
 10
101.2644284696
 20
144.4321656345
 30
0.0
 11
101.06643855
 21
144.5311605943
 31
0.0
  0
LINE
  5
BB
330
3C
100
AcDbEntity
  8
DV1_デフォルト
  6
CONTINUOUS
 62
     7
100
AcDbLine
 10
100.253301465
 20
145.3786695458
 30
0.0
 11
100.253301465
 21
145.3460295372
 31
0.0
  0
LINE
  5
BC
330
3C
100
AcDbEntity
  8
DV1_デフォルト
  6
CONTINUOUS
 62
     7
100
AcDbLine
 10
101.653301465
 20
145.3460295372
 30
0.0
 11
101.653301465
 21
145.3786695458
 31
0.0
  0
LINE
  5
BD
330
3C
100
AcDbEntity
  8
DV1_デフォルト
  6
CONTINUOUS
 62
     7
100
AcDbLine
 10
99.9545779884
 20
144.9637023123
 30
0.0
 11
99.9800867344
 21
144.7115208167
 31
0.0
  0
LINE
  5
BE
330
3C
100
AcDbEntity
  8
DV1_デフォルト
  6
CONTINUOUS
 62
     7
100
AcDbLine
 10
101.9265161956
 20
144.7115208167
 30
0.0
 11
101.9520249416
 21
144.9637023123
 31
0.0
  0
SPLINE
  5
BF
330
3C
100
AcDbEntity
  8
DV1_デフォルト
  6
CONTINUOUS
 62
     7
100
AcDbSpline
210
0.0
220
0.0
230
1.0
 70
     8
 71
     3
 72
    25
 73
    21
 74
     0
 42
0.0000000041164896
 43
0.0000000001
 40
0.0
 40
0.0
 40
0.0
 40
0.0
 40
0.0155002061240072
 40
0.0662152472065786
 40
0.1172442485042607
 40
0.1711329169633014
 40
0.2292048852858896
 40
0.2905975670505915
 40
0.3528146883421918
 40
0.4144845260376477
 40
0.4756245266305723
 40
0.5365362298634536
 40
0.5975673740357798
 40
0.6589891775635125
 40
0.7212354751873898
 40
0.7847772209005335
 40
0.8498468774652677
 40
0.9046274581202398
 40
0.9557240898462506
 40
1.0
 40
1.0
 40
1.0
 40
1.0
 10
99.98317228770742
 20
144.7137477428372
 30
0.0
 10
99.98324544000356
 20
144.7016334614838
 30
0.0
 10
99.98374376206972
 20
144.657371736895
 30
0.0
 10
100.0147346985565
 20
144.5755422631355
 30
0.0
 10
100.0720747470854
 20
144.4821337165439
 30
0.0
 10
100.1553610404593
 20
144.3974974693573
 30
0.0
 10
100.2626407524689
 20
144.3226652515901
 30
0.0
 10
100.3940199679658
 20
144.259410107128
 30
0.0
 10
100.544684249792
 20
144.2106692250043
 30
0.0
 10
100.70795588513
 20
144.1781814035982
 30
0.0
 10
100.8778734320828
 20
144.1624431422472
 30
0.0
 10
101.0496098131119
 20
144.1634697698664
 30
0.0
 10
101.2185307816601
 20
144.1811966711664
 30
0.0
 10
101.380239051485
 20
144.2155421688714
 30
0.0
 10
101.5307347466801
 20
144.2666598220412
 30
0.0
 10
101.6661277160295
 20
144.3351944233893
 30
0.0
 10
101.7757534054212
 20
144.4180589925634
 30
0.0
 10
101.8554721157707
 20
144.5107108048283
 30
0.0
 10
101.9073010445161
 20
144.6076043526155
 30
0.0
 10
101.9186994448069
 20
144.6697542647857
 30
0.0
 10
101.9244628567743
 20
144.703901741279
 30
0.0
  0
LINE
  5
C0
330
3C
100
AcDbEntity
  8
DV1_デフォルト
  6
CONTINUOUS
 62
     7
100
AcDbLine
 10
100.6041843496
 20
144.5559454122
 30
0.0
 11
100.6041843496
 21
144.729150493
 31
0.0
  0
LINE
  5
C1
330
3C
100
AcDbEntity
  8
DV1_デフォルト
  6
CONTINUOUS
 62
     7
100
AcDbLine
 10
101.3024185804
 20
144.729150493
 30
0.0
 11
101.3024185804
 21
144.5559454122
 31
0.0
  0
ELLIPSE
  5
C2
330
3C
100
AcDbEntity
  8
DV1_デフォルト
  6
CONTINUOUS
 62
     7
100
AcDbEllipse
 10
100.953301465
 20
182.1414479364
 30
0.0
 11
-1.000000002384288
 21
2.165383880939717E-32
 31
0.0
210
0.0
220
0.0
230
1.0
 40
0.5
 41
6.232652199639605
 42
6.283185307179586
  0
ELLIPSE
  5
C3
330
3C
100
AcDbEntity
  8
DV1_デフォルト
  6
CONTINUOUS
 62
     7
100
AcDbEllipse
 10
100.953301465
 20
182.1414479364
 30
0.0
 11
-1.000000002384288
 21
2.165383880939717E-32
 31
0.0
210
0.0
220
0.0
230
1.0
 40
0.5
 41
0.0
 42
3.192125761130055
  0
ELLIPSE
  5
C4
330
3C
100
AcDbEntity
  8
DV1_デフォルト
  6
CONTINUOUS
 62
     7
100
AcDbEllipse
 10
100.8118801157
 20
172.1114453071
 30
0.0
 11
-5.365817757924659
 21
10.7316352696762
 31
0.0
210
0.0
220
0.0
230
1.0
 40
0.6123724364
 41
-0.7380852850779354
 42
-0.7147278844157441
  0
ELLIPSE
  5
C5
330
3C
100
AcDbEntity
  8
DV1_デフォルト
  6
CONTINUOUS
 62
     7
100
AcDbEllipse
 10
101.4058498258
 20
171.9558816345
 30
0.0
 11
5.358925266531998
 21
10.71785050570794
 31
0.0
210
0.0
220
0.0
230
1.0
 40
0.6123724358
 41
0.6680280080617553
 42
0.7014104002304801
  0
ELLIPSE
  5
C6
330
3C
100
AcDbEntity
  8
DV1_デフォルト
  6
CONTINUOUS
 62
     7
100
AcDbEllipse
 10
101.0947228277
 20
172.2528666635
 30
0.0
 11
-5.365817757709952
 21
10.7316352695175
 31
0.0
210
0.0
220
0.0
230
1.0
 40
0.6123724364
 41
-0.7380852850936668
 42
-0.7147278844315839
  0
SPLINE
  5
C7
330
3C
100
AcDbEntity
  8
DV1_デフォルト
  6
CONTINUOUS
 62
     7
100
AcDbSpline
210
0.0
220
0.0
230
1.0
 70
     8
 71
     3
 72
    20
 73
    16
 74
     0
 42
0.0000000641393446
 43
0.0000000001
 40
0.0
 40
0.0
 40
0.0
 40
0.0
 40
0.2137444315573367
 40
0.2137444315573367
 40
0.2137444315573367
 40
0.4286117530380567
 40
0.4286117530380567
 40
0.4286117530380567
 40
0.6433699458012424
 40
0.6433699458012424
 40
0.6433699458012424
 40
0.8580793715253078
 40
0.8580793715253078
 40
0.8580793715253078
 40
1.0
 40
1.0
 40
1.0
 40
1.0
 10
101.349281262461
 20
182.6249074649435
 30
0.0
 10
101.3366922609379
 20
182.6190757427384
 30
0.0
 10
101.3260896633268
 20
182.612003886167
 30
0.0
 10
101.3183442092004
 20
182.6042706045237
 30
0.0
 10
101.3105581784232
 20
182.5964968099985
 30
0.0
 10
101.3054460958529
 20
182.587840449321
 30
0.0
 10
101.3034330540326
 20
182.5790188440051
 30
0.0
 10
101.3014210133376
 20
182.5702016258471
 30
0.0
 10
101.3024494164839
 20
182.5609761032224
 30
0.0
 10
101.3064327760926
 20
182.5521065512041
 30
0.0
 10
101.310415285659
 20
182.5432388919335
 30
0.0
 10
101.3174610977243
 20
182.5344825937963
 30
0.0
 10
101.3269854864457
 20
182.5265619047752
 30
0.0
 10
101.3333309279698
 20
182.5212848974539
 30
0.0
 10
101.3408561341108
 20
182.5162927156654
 30
0.0
 10
101.349281262461
 20
182.5117703799537
 30
0.0
  0
ELLIPSE
  5
C8
330
3C
100
AcDbEntity
  8
DV1_デフォルト
  6
CONTINUOUS
 62
     7
100
AcDbEllipse
 10
101.0947228179
 20
172.1114450165
 30
0.0
 11
5.365817732298567
 21
10.73163558188946
 31
0.0
210
0.0
220
0.0
230
0.9999999999999999
 40
0.6123724349
 41
0.631353126465718
 42
0.654710526799055
  0
ELLIPSE
  5
C9
330
3C
100
AcDbEntity
  8
DV1_デフォルト
  6
CONTINUOUS
 62
     7
100
AcDbEllipse
 10
101.4058498258
 20
172.4084300005
 30
0.0
 11
-5.358925266941098
 21
10.71785050019239
 31
0.0
210
0.0
220
0.0
230
1.0
 40
0.6123724359
 41
-0.701410400500766
 42
-0.6680280083237662
  0
ELLIPSE
  5
CA
330
3C
100
AcDbEntity
  8
DV1_デフォルト
  6
CONTINUOUS
 62
     7
100
AcDbEllipse
 10
100.8118801053
 20
172.252866365
 30
0.0
 11
5.365817731694332
 21
10.73163559024263
 31
0.0
210
0.0
220
0.0
230
1.0
 40
0.6123724348
 41
0.6313531260815943
 42
0.6547105264061834
  0
ARC
  5
CB
330
3C
100
AcDbEntity
  8
DV1_デフォルト
  6
CONTINUOUS
 62
     7
100
AcDbCircle
 10
100.953301465
 20
183.0473802345
 30
0.0
 40
0.3029684751409757
100
AcDbArc
 50
248.0727777628
 51
291.9272222371
  0
ELLIPSE
  5
CC
330
3C
100
AcDbEntity
  8
DV1_デフォルト
  6
CONTINUOUS
 62
     7
100
AcDbEllipse
 10
101.0947228246
 20
172.2528663727
 30
0.0
 11
-5.365817732288506
 21
10.73163558195589
 31
0.0
210
0.0
220
0.0
230
0.9999999999999998
 40
0.6123724349
 41
-0.654710526795923
 42
-0.6313531264626846
  0
ELLIPSE
  5
CD
330
3C
100
AcDbEntity
  8
DV1_デフォルト
  6
CONTINUOUS
 62
     7
100
AcDbEllipse
 10
100.5007531042
 20
172.4084299927
 30
0.0
 11
5.358925266257025
 21
10.71785050851825
 31
0.0
210
0.0
220
0.0
230
0.9999999999999997
 40
0.6123724358
 41
0.6680280079284425
 42
0.701410400092924
  0
ELLIPSE
  5
CE
330
3C
100
AcDbEntity
  8
DV1_デフォルト
  6
CONTINUOUS
 62
     7
100
AcDbEllipse
 10
100.811880112
 20
172.1114450166
 30
0.0
 11
-5.365817732166552
 21
10.73163558186836
 31
0.0
210
0.0
220
0.0
230
0.9999999999999999
 40
0.6123724349
 41
-0.6547105268000006
 42
-0.6313531264667303
  0
SPLINE
  5
CF
330
3C
100
AcDbEntity
  8
DV1_デフォルト
  6
CONTINUOUS
 62
     7
100
AcDbSpline
210
0.0
220
0.0
230
1.0
 70
     8
 71
     3
 72
    20
 73
    16
 74
     0
 42
0.0000000641416445
 43
0.0000000001
 40
0.0
 40
0.0
 40
0.0
 40
0.0
 40
0.213744431557404
 40
0.213744431557404
 40
0.213744431557404
 40
0.4286117530381285
 40
0.4286117530381285
 40
0.4286117530381285
 40
0.6433699458013189
 40
0.6433699458013189
 40
0.6433699458013189
 40
0.8580793715253859
 40
0.8580793715253859
 40
0.8580793715253859
 40
1.0
 40
1.0
 40
1.0
 40
1.0
 10
100.5573216675321
 20
182.5117703799537
 30
0.0
 10
100.5699106690552
 20
182.5185277477702
 30
0.0
 10
100.5805132666662
 20
182.5263791312259
 30
0.0
 10
100.5882587207926
 20
182.5346818591919
 30
0.0
 10
100.5960447515698
 20
182.5430280832381
 30
0.0
 10
100.6011568341401
 20
182.5520602634654
 30
0.0
 10
100.6031698759605
 20
182.5610298599458
 30
0.0
 10
100.6051819166555
 20
182.5699949956695
 30
0.0
 10
100.6041535135092
 20
182.5791449159513
 30
0.0
 10
100.6001701539004
 20
182.5877216234401
 30
0.0
 10
100.5961876443341
 20
182.5962965006737
 30
0.0
 10
100.5891418322687
 20
182.6045348080364
 30
0.0
 10
100.5796174435473
 20
182.6117552419256
 30
0.0
 10
100.5732720020233
 20
182.6165657176802
 30
0.0
 10
100.5657467958822
 20
182.621004613078
 30
0.0
 10
100.5573216675321
 20
182.6249074649435
 30
0.0
  0
ELLIPSE
  5
D0
330
3C
100
AcDbEntity
  8
DV1_デフォルト
  6
CONTINUOUS
 62
     7
100
AcDbEllipse
 10
100.8118801019
 20
172.2528666635
 30
0.0
 11
5.365817757951148
 21
10.73163526949499
 31
0.0
210
0.0
220
0.0
230
1.0
 40
0.6123724364
 41
0.714727884425687
 42
0.7380852850880693
  0
ELLIPSE
  5
D1
330
3C
100
AcDbEntity
  8
DV1_デフォルト
  6
CONTINUOUS
 62
     7
100
AcDbEllipse
 10
100.5007531042
 20
171.9558816398
 30
0.0
 11
-5.358925266923578
 21
10.71785050007428
 31
0.0
210
0.0
220
0.0
230
1.0
 40
0.6123724359
 41
-0.7014104005071626
 42
-0.6680280083300048
  0
ELLIPSE
  5
D2
330
3C
100
AcDbEntity
  8
DV1_デフォルト
  6
CONTINUOUS
 62
     7
100
AcDbEllipse
 10
101.094722815
 20
172.1114452998
 30
0.0
 11
5.36581775695767
 21
10.73163527757678
 31
0.0
210
0.0
220
0.0
230
0.9999999999999999
 40
0.6123724364
 41
0.714727884033873
 42
0.7380852846873864
  0
ARC
  5
D3
330
3C
100
AcDbEntity
  8
DV1_デフォルト
  6
CONTINUOUS
 62
     7
100
AcDbCircle
 10
100.953301465
 20
182.1307648559
 30
0.0
 40
0.2649539082289114
100
AcDbArc
 50
64.7222549179
 51
115.2777450821
  0
LINE
  5
D4
330
3C
100
AcDbEntity
  8
DV1_デフォルト
  6
CONTINUOUS
 62
     7
100
AcDbLine
 10
100.6421744604
 20
182.8552092698
 30
0.0
 11
100.6421744604
 21
182.6982404161
 31
0.0
  0
LINE
  5
D5
330
3C
100
AcDbEntity
  8
DV1_デフォルト
  6
CONTINUOUS
 62
     7
100
AcDbLine
 10
101.2644284696
 20
182.8552092698
 30
0.0
 11
101.2644284696
 21
182.6982404161
 31
0.0
  0
LINE
  5
D6
330
3C
100
AcDbEntity
  8
DV1_デフォルト
  6
CONTINUOUS
 62
     7
100
AcDbLine
 10
100.5177253169
 20
182.3248888397
 30
0.0
 11
100.5573216675
 21
182.344687015
 31
0.0
  0
ELLIPSE
  5
D7
330
3C
100
AcDbEntity
  8
DV1_デフォルト
  6
CONTINUOUS
 62
     7
100
AcDbEllipse
 10
100.4441837872
 20
182.4012555575
 30
0.0
 11
-0.1600005623866932
 21
-1.369229700657272E-32
 31
0.0
210
0.0
220
0.0
230
1.0
 40
0.5
 41
2.356198005090748
 42
3.141592653589793
  0
LINE
  5
D8
330
3C
100
AcDbEntity
  8
DV1_デフォルト
  6
CONTINUOUS
 62
     7
100
AcDbLine
 10
100.5251578632
 20
182.6397321175
 30
0.0
 11
100.6421744604
 21
182.6982404161
 31
0.0
  0
LINE
  5
D9
330
3C
100
AcDbEntity
  8
DV1_デフォルト
  6
CONTINUOUS
 62
     7
100
AcDbLine
 10
100.6421744604
 20
182.6982404161
 30
0.0
 11
100.84016438
 21
182.5992454563
 31
0.0
  0
ELLIPSE
  5
DA
330
3C
100
AcDbEntity
  8
DV1_デフォルト
  6
CONTINUOUS
 62
     7
100
AcDbEllipse
 10
100.953301465
 20
182.6558346061
 30
0.0
 11
-0.1600291457890465
 21
3.465245319459390E-33
 31
0.0
210
0.0
220
0.0
230
1.0
 40
0.5
 41
0.7855802748209595
 42
2.356012378768708
  0
LINE
  5
DB
330
3C
100
AcDbEntity
  8
DV1_デフォルト
  6
CONTINUOUS
 62
     7
100
AcDbLine
 10
101.06643855
 20
182.5992454563
 30
0.0
 11
101.2644284696
 21
182.6982404161
 31
0.0
  0
LINE
  5
DC
330
3C
100
AcDbEntity
  8
DV1_デフォルト
  6
CONTINUOUS
 62
     7
100
AcDbLine
 10
101.2644284696
 20
182.6982404161
 30
0.0
 11
101.3814450668
 21
182.6397321175
 31
0.0
  0
ELLIPSE
  5
DD
330
3C
100
AcDbEntity
  8
DV1_デフォルト
  6
CONTINUOUS
 62
     7
100
AcDbEllipse
 10
101.4624191428
 20
182.4012555575
 30
0.0
 11
0.1600005623866758
 21
-3.464626379073307E-33
 31
0.0
210
0.0
220
0.0
230
1.0
 40
0.5
 41
3.141592653589793
 42
3.926987302088981
  0
LINE
  5
DE
330
3C
100
AcDbEntity
  8
DV1_デフォルト
  6
CONTINUOUS
 62
     7
100
AcDbLine
 10
101.3492812625
 20
182.344687015
 30
0.0
 11
101.3888776131
 21
182.3248888397
 31
0.0
  0
LINE
  5
DF
330
3C
100
AcDbEntity
  8
DV1_デフォルト
  6
CONTINUOUS
 62
     7
100
AcDbLine
 10
101.653301465
 20
181.7517365047
 30
0.0
 11
101.653301465
 21
181.7843765133
 31
0.0
  0
LINE
  5
E0
330
3C
100
AcDbEntity
  8
DV1_デフォルト
  6
CONTINUOUS
 62
     7
100
AcDbLine
 10
100.253301465
 20
181.7843765133
 30
0.0
 11
100.253301465
 21
181.7517365047
 31
0.0
  0
LINE
  5
E1
330
3C
100
AcDbEntity
  8
DV1_デフォルト
  6
CONTINUOUS
 62
     7
100
AcDbLine
 10
101.9520249416
 20
182.1667037382
 30
0.0
 11
101.9265161956
 21
182.4188852338
 31
0.0
  0
LINE
  5
E2
330
3C
100
AcDbEntity
  8
DV1_デフォルト
  6
CONTINUOUS
 62
     7
100
AcDbLine
 10
99.9800867344
 20
182.4188852338
 30
0.0
 11
99.9545779884
 21
182.1667037382
 31
0.0
  0
SPLINE
  5
E3
330
3C
100
AcDbEntity
  8
DV1_デフォルト
  6
CONTINUOUS
 62
     7
100
AcDbSpline
210
0.0
220
0.0
230
1.0
 70
     8
 71
     3
 72
    17
 73
    13
 74
     0
 42
0.0000000082254491
 43
0.0000000001
 40
0.0
 40
0.0
 40
0.0
 40
0.0
 40
0.030629767673506
 40
0.1318750491961138
 40
0.2339308086332685
 40
0.3418312608861573
 40
0.4581089234170904
 40
0.5808936859526834
 40
0.7051677269082895
 40
0.8283295166330521
 40
0.9504476507720248
 40
1.0
 40
1.0
 40
1.0
 40
1.0
 10
101.9230768054365
 20
182.4204689361691
 30
0.0
 10
101.9228912877348
 20
182.4324500893964
 30
0.0
 10
101.9219812689799
 20
182.4765710564502
 30
0.0
 10
101.890340233833
 20
182.5580175881724
 30
0.0
 10
101.8322625018942
 20
182.6511075495088
 30
0.0
 10
101.7482077307768
 20
182.7354458614242
 30
0.0
 10
101.6401138854151
 20
182.80995361372
 30
0.0
 10
101.5081198569038
 20
182.8727778670141
 30
0.0
 10
101.356602332202
 20
182.9210568437584
 30
0.0
 10
101.1943175748945
 20
182.9528768141766
 30
0.0
 10
101.0539031675747
 20
182.9654981861251
 30
0.0
 10
100.9787561623613
 20
182.9665364911151
 30
0.0
 10
100.9533014649965
 20
182.9667885381807
 30
0.0
  0
SPLINE
  5
E4
330
3C
100
AcDbEntity
  8
DV1_デフォルト
  6
CONTINUOUS
 62
     7
100
AcDbSpline
210
0.0
220
0.0
230
1.0
 70
     8
 71
     3
 72
    16
 73
    12
 74
     0
 42
0.0000000083037362
 43
0.0000000001
 40
0.0
 40
0.0
 40
0.0
 40
0.0
 40
0.0654163824652982
 40
0.1884966186382502
 40
0.3124692133855799
 40
0.4380776493171762
 40
0.5662737022948737
 40
0.6975633577983671
 40
0.8084725006981072
 40
0.9118478737101372
 40
1.0
 40
1.0
 40
1.0
 40
1.0
 10
100.9533014649965
 20
182.9667885381807
 30
0.0
 10
100.9200547050497
 20
182.9663585804423
 30
0.0
 10
100.8386200213149
 20
182.9649172373432
 30
0.0
 10
100.692241083832
 20
182.949866966616
 30
0.0
 10
100.5314743711158
 20
182.9162125409413
 30
0.0
 10
100.3802540198007
 20
182.8655761320073
 30
0.0
 10
100.2444250149242
 20
182.7976133282397
 30
0.0
 10
100.1340325578688
 20
182.7152681434098
 30
0.0
 10
100.0534655378388
 20
182.6230476502528
 30
0.0
 10
100.0008642910508
 20
182.5268410472135
 30
0.0
 10
99.98893456270628
 20
182.4651315549549
 30
0.0
 10
99.98292212202826
 20
182.4315210686406
 30
0.0
  0
LINE
  5
E5
330
3C
100
AcDbEntity
  8
DV1_デフォルト
  6
CONTINUOUS
 62
     7
100
AcDbLine
 10
100.6041843496
 20
182.4012555575
 30
0.0
 11
100.6041843496
 21
182.5744606383
 31
0.0
  0
LINE
  5
E6
330
3C
100
AcDbEntity
  8
DV1_デフォルト
  6
CONTINUOUS
 62
     7
100
AcDbLine
 10
101.3024185804
 20
182.5744606383
 30
0.0
 11
101.3024185804
 21
182.4012555575
 31
0.0
  0
ELLIPSE
  5
E7
330
3C
100
AcDbEntity
  8
DV1_デフォルト
  6
CONTINUOUS
 62
     7
100
AcDbEllipse
 10
113.453301465
 20
182.1414479364
 30
0.0
 11
-1.000000002384288
 21
2.165383880939717E-32
 31
0.0
210
0.0
220
0.0
230
1.0
 40
0.5
 41
6.232652199639324
 42
6.283185307179586
  0
ELLIPSE
  5
E8
330
3C
100
AcDbEntity
  8
DV1_デフォルト
  6
CONTINUOUS
 62
     7
100
AcDbEllipse
 10
113.453301465
 20
182.1414479364
 30
0.0
 11
-1.000000002384288
 21
2.165383880939717E-32
 31
0.0
210
0.0
220
0.0
230
1.0
 40
0.5
 41
0.0
 42
3.192125761129774
  0
ELLIPSE
  5
E9
330
3C
100
AcDbEntity
  8
DV1_デフォルト
  6
CONTINUOUS
 62
     7
100
AcDbEllipse
 10
113.3118801154
 20
172.1114452998
 30
0.0
 11
-5.365817757176407
 21
10.73163527753995
 31
0.0
210
0.0
220
0.0
230
1.0
 40
0.6123724363
 41
-0.7380852846827475
 42
-0.7147278840289468
  0
ELLIPSE
  5
EA
330
3C
100
AcDbEntity
  8
DV1_デフォルト
  6
CONTINUOUS
 62
     7
100
AcDbEllipse
 10
113.9058498258
 20
171.9558816356
 30
0.0
 11
5.358925266606959
 21
10.71785050455102
 31
0.0
210
0.0
220
0.0
230
1.0
 40
0.6123724358
 41
0.6680280081160417
 42
0.7014104002865211
  0
ELLIPSE
  5
EB
330
3C
100
AcDbEntity
  8
DV1_デフォルト
  6
CONTINUOUS
 62
     7
100
AcDbEllipse
 10
113.5947228276
 20
172.2528666596
 30
0.0
 11
-5.36581775733119
 21
10.73163527372019
 31
0.0
210
0.0
220
0.0
230
1.0
 40
0.6123724364
 41
-0.7380852848819082
 42
-0.7147278842243106
  0
SPLINE
  5
EC
330
3C
100
AcDbEntity
  8
DV1_デフォルト
  6
CONTINUOUS
 62
     7
100
AcDbSpline
210
0.0
220
0.0
230
1.0
 70
     8
 71
     3
 72
    20
 73
    16
 74
     0
 42
0.0000000641393446
 43
0.0000000001
 40
0.0
 40
0.0
 40
0.0
 40
0.0
 40
0.2137444315573367
 40
0.2137444315573367
 40
0.2137444315573367
 40
0.4286117530380567
 40
0.4286117530380567
 40
0.4286117530380567
 40
0.6433699458012424
 40
0.6433699458012424
 40
0.6433699458012424
 40
0.8580793715253078
 40
0.8580793715253078
 40
0.8580793715253078
 40
1.0
 40
1.0
 40
1.0
 40
1.0
 10
113.849281262461
 20
182.6249074649435
 30
0.0
 10
113.8366922609379
 20
182.6190757427384
 30
0.0
 10
113.8260896633269
 20
182.6120038861669
 30
0.0
 10
113.8183442092004
 20
182.6042706045237
 30
0.0
 10
113.8105581784232
 20
182.5964968099985
 30
0.0
 10
113.805446095853
 20
182.587840449321
 30
0.0
 10
113.8034330540326
 20
182.5790188440051
 30
0.0
 10
113.8014210133376
 20
182.5702016258471
 30
0.0
 10
113.8024494164839
 20
182.5609761032224
 30
0.0
 10
113.8064327760926
 20
182.552106551204
 30
0.0
 10
113.810415285659
 20
182.5432388919335
 30
0.0
 10
113.8174610977243
 20
182.5344825937963
 30
0.0
 10
113.8269854864458
 20
182.5265619047751
 30
0.0
 10
113.8333309279698
 20
182.5212848974539
 30
0.0
 10
113.8408561341109
 20
182.5162927156654
 30
0.0
 10
113.849281262461
 20
182.5117703799536
 30
0.0
  0
ELLIPSE
  5
ED
330
3C
100
AcDbEntity
  8
DV1_デフォルト
  6
CONTINUOUS
 62
     7
100
AcDbEllipse
 10
113.594722818
 20
172.1114450202
 30
0.0
 11
5.365817732504859
 21
10.73163557795156
 31
0.0
210
0.0
220
0.0
230
1.0
 40
0.6123724349
 41
0.631353126646758
 42
0.6547105269841084
  0
ELLIPSE
  5
EE
330
3C
100
AcDbEntity
  8
DV1_デフォルト
  6
CONTINUOUS
 62
     7
100
AcDbEllipse
 10
113.9058498258
 20
172.4084299991
 30
0.0
 11
-5.358925266833681
 21
10.71785050164048
 31
0.0
210
0.0
220
0.0
230
1.0
 40
0.6123724358
 41
-0.701410400430297
 42
-0.6680280082554653
  0
ELLIPSE
  5
EF
330
3C
100
AcDbEntity
  8
DV1_デフォルト
  6
CONTINUOUS
 62
     7
100
AcDbEllipse
 10
113.3118801158
 20
172.2528666891
 30
0.0
 11
5.365817751738581
 21
10.73163524255855
 31
0.0
210
0.0
220
0.0
230
1.0
 40
0.6123724375
 41
0.631353142107213
 42
0.6547105427905079
  0
ARC
  5
F0
330
3C
100
AcDbEntity
  8
DV1_デフォルト
  6
CONTINUOUS
 62
     7
100
AcDbCircle
 10
113.453301465
 20
183.0473802345
 30
0.0
 40
0.3029684751409751
100
AcDbArc
 50
248.0727777629
 51
291.9272222371
  0
ELLIPSE
  5
F1
330
3C
100
AcDbEntity
  8
DV1_デフォルト
  6
CONTINUOUS
 62
     7
100
AcDbEllipse
 10
113.5947228245
 20
172.2528663766
 30
0.0
 11
-5.365817732526063
 21
10.7316355777877
 31
0.0
210
0.0
220
0.0
230
0.9999999999999999
 40
0.6123724349
 41
-0.6547105269923028
 42
-0.6313531266547727
  0
ELLIPSE
  5
F2
330
3C
100
AcDbEntity
  8
DV1_デフォルト
  6
CONTINUOUS
 62
     7
100
AcDbEllipse
 10
113.0007531042
 20
172.4084299966
 30
0.0
 11
5.358925266583966
 21
10.7178505043843
 31
0.0
210
0.0
220
0.0
230
0.9999999999999999
 40
0.6123724358
 41
0.6680280081248593
 42
0.7014104002955629
  0
ELLIPSE
  5
F3
330
3C
100
AcDbEntity
  8
DV1_デフォルト
  6
CONTINUOUS
 62
     7
100
AcDbEllipse
 10
113.3118801017
 20
172.1114453327
 30
0.0
 11
-5.365817751727474
 21
10.73163524272539
 31
0.0
210
0.0
220
0.0
230
1.0
 40
0.6123724375
 41
-0.6547105427826008
 42
-0.6313531420994707
  0
SPLINE
  5
F4
330
3C
100
AcDbEntity
  8
DV1_デフォルト
  6
CONTINUOUS
 62
     7
100
AcDbSpline
210
0.0
220
0.0
230
1.0
 70
     8
 71
     3
 72
    20
 73
    16
 74
     0
 42
0.0000000641416445
 43
0.0000000001
 40
0.0
 40
0.0
 40
0.0
 40
0.0
 40
0.213744431557404
 40
0.213744431557404
 40
0.213744431557404
 40
0.4286117530381285
 40
0.4286117530381285
 40
0.4286117530381285
 40
0.6433699458013189
 40
0.6433699458013189
 40
0.6433699458013189
 40
0.8580793715253859
 40
0.8580793715253859
 40
0.8580793715253859
 40
1.0
 40
1.0
 40
1.0
 40
1.0
 10
113.0573216675321
 20
182.5117703799537
 30
0.0
 10
113.0699106690552
 20
182.5185277477701
 30
0.0
 10
113.0805132666662
 20
182.5263791312258
 30
0.0
 10
113.0882587207927
 20
182.5346818591919
 30
0.0
 10
113.0960447515698
 20
182.543028083238
 30
0.0
 10
113.1011568341401
 20
182.5520602634654
 30
0.0
 10
113.1031698759605
 20
182.5610298599458
 30
0.0
 10
113.1051819166555
 20
182.5699949956694
 30
0.0
 10
113.1041535135092
 20
182.5791449159513
 30
0.0
 10
113.1001701539005
 20
182.5877216234401
 30
0.0
 10
113.0961876443341
 20
182.5962965006737
 30
0.0
 10
113.0891418322687
 20
182.6045348080364
 30
0.0
 10
113.0796174435473
 20
182.6117552419256
 30
0.0
 10
113.0732720020233
 20
182.6165657176802
 30
0.0
 10
113.0657467958822
 20
182.6210046130779
 30
0.0
 10
113.0573216675321
 20
182.6249074649435
 30
0.0
  0
ELLIPSE
  5
F5
330
3C
100
AcDbEntity
  8
DV1_デフォルト
  6
CONTINUOUS
 62
     7
100
AcDbEllipse
 10
113.3118801017
 20
172.2528666669
 30
0.0
 11
5.365817758313994
 21
10.73163526584397
 31
0.0
210
0.0
220
0.0
230
1.0
 40
0.6123724364
 41
0.714727884604754
 42
0.7380852852709898
  0
ELLIPSE
  5
F6
330
3C
100
AcDbEntity
  8
DV1_デフォルト
  6
CONTINUOUS
 62
     7
100
AcDbEllipse
 10
113.0007531041
 20
171.9558816384
 30
0.0
 11
-5.358925266804305
 21
10.71785050154971
 31
0.0
210
0.0
220
0.0
230
1.0
 40
0.6123724359
 41
-0.7014104004345745
 42
-0.6680280082596264
  0
ELLIPSE
  5
F7
330
3C
100
AcDbEntity
  8
DV1_デフォルト
  6
CONTINUOUS
 62
     7
100
AcDbEllipse
 10
113.5947228153
 20
172.1114452925
 30
0.0
 11
5.365817756225011
 21
10.73163528543564
 31
0.0
210
0.0
220
0.0
230
1.0
 40
0.6123724363
 41
0.714727883647244
 42
0.7380852842923925
  0
ARC
  5
F8
330
3C
100
AcDbEntity
  8
DV1_デフォルト
  6
CONTINUOUS
 62
     7
100
AcDbCircle
 10
113.453301465
 20
182.1307648559
 30
0.0
 40
0.2649539082289074
100
AcDbArc
 50
64.7222549179
 51
115.2777450821
  0
LINE
  5
F9
330
3C
100
AcDbEntity
  8
DV1_デフォルト
  6
CONTINUOUS
 62
     7
100
AcDbLine
 10
113.1421744604
 20
182.8552092698
 30
0.0
 11
113.1421744604
 21
182.6982404161
 31
0.0
  0
LINE
  5
FA
330
3C
100
AcDbEntity
  8
DV1_デフォルト
  6
CONTINUOUS
 62
     7
100
AcDbLine
 10
113.7644284696
 20
182.8552092698
 30
0.0
 11
113.7644284696
 21
182.6982404161
 31
0.0
  0
LINE
  5
FB
330
3C
100
AcDbEntity
  8
DV1_デフォルト
  6
CONTINUOUS
 62
     7
100
AcDbLine
 10
113.0177253169
 20
182.3248888397
 30
0.0
 11
113.0573216675
 21
182.344687015
 31
0.0
  0
ELLIPSE
  5
FC
330
3C
100
AcDbEntity
  8
DV1_デフォルト
  6
CONTINUOUS
 62
     7
100
AcDbEllipse
 10
112.9441837872
 20
182.4012555575
 30
0.0
 11
-0.1600005623866897
 21
2.062154976472001E-32
 31
0.0
210
0.0
220
0.0
230
1.0
 40
0.5
 41
2.35619800509077
 42
3.141592653589793
  0
LINE
  5
FD
330
3C
100
AcDbEntity
  8
DV1_デフォルト
  6
CONTINUOUS
 62
     7
100
AcDbLine
 10
113.0251578632
 20
182.6397321175
 30
0.0
 11
113.1421744604
 21
182.6982404161
 31
0.0
  0
LINE
  5
FE
330
3C
100
AcDbEntity
  8
DV1_デフォルト
  6
CONTINUOUS
 62
     7
100
AcDbLine
 10
113.1421744604
 20
182.6982404161
 30
0.0
 11
113.34016438
 21
182.5992454563
 31
0.0
  0
ELLIPSE
  5
FF
330
3C
100
AcDbEntity
  8
DV1_デフォルト
  6
CONTINUOUS
 62
     7
100
AcDbEllipse
 10
113.453301465
 20
182.6558346061
 30
0.0
 11
-0.1600291457890465
 21
3.465245319459390E-33
 31
0.0
210
0.0
220
0.0
230
1.0
 40
0.5
 41
0.785580274821085
 42
2.356012378768708
  0
LINE
  5
100
330
3C
100
AcDbEntity
  8
DV1_デフォルト
  6
CONTINUOUS
 62
     7
100
AcDbLine
 10
113.56643855
 20
182.5992454563
 30
0.0
 11
113.7644284696
 21
182.6982404161
 31
0.0
  0
LINE
  5
101
330
3C
100
AcDbEntity
  8
DV1_デフォルト
  6
CONTINUOUS
 62
     7
100
AcDbLine
 10
113.7644284696
 20
182.6982404161
 30
0.0
 11
113.8814450668
 21
182.6397321175
 31
0.0
  0
ELLIPSE
  5
102
330
3C
100
AcDbEntity
  8
DV1_デフォルト
  6
CONTINUOUS
 62
     7
100
AcDbEllipse
 10
113.9624191428
 20
182.4012555575
 30
0.0
 11
0.1600005623866828
 21
-2.062154976471986E-32
 31
0.0
210
0.0
220
0.0
230
1.0
 40
0.5
 41
3.141592653589793
 42
3.926987302088899
  0
LINE
  5
103
330
3C
100
AcDbEntity
  8
DV1_デフォルト
  6
CONTINUOUS
 62
     7
100
AcDbLine
 10
113.8492812625
 20
182.344687015
 30
0.0
 11
113.8888776131
 21
182.3248888397
 31
0.0
  0
LINE
  5
104
330
3C
100
AcDbEntity
  8
DV1_デフォルト
  6
CONTINUOUS
 62
     7
100
AcDbLine
 10
114.153301465
 20
181.7517365047
 30
0.0
 11
114.153301465
 21
181.7843765133
 31
0.0
  0
LINE
  5
105
330
3C
100
AcDbEntity
  8
DV1_デフォルト
  6
CONTINUOUS
 62
     7
100
AcDbLine
 10
112.753301465
 20
181.7843765133
 30
0.0
 11
112.753301465
 21
181.7517365047
 31
0.0
  0
LINE
  5
106
330
3C
100
AcDbEntity
  8
DV1_デフォルト
  6
CONTINUOUS
 62
     7
100
AcDbLine
 10
114.4520249416
 20
182.1667037382
 30
0.0
 11
114.4265161956
 21
182.4188852338
 31
0.0
  0
LINE
  5
107
330
3C
100
AcDbEntity
  8
DV1_デフォルト
  6
CONTINUOUS
 62
     7
100
AcDbLine
 10
112.4800867344
 20
182.4188852338
 30
0.0
 11
112.4545779884
 21
182.1667037382
 31
0.0
  0
SPLINE
  5
108
330
3C
100
AcDbEntity
  8
DV1_デフォルト
  6
CONTINUOUS
 62
     7
100
AcDbSpline
210
0.0
220
0.0
230
1.0
 70
     8
 71
     3
 72
    17
 73
    13
 74
     0
 42
0.0000000082254491
 43
0.0000000001
 40
0.0
 40
0.0
 40
0.0
 40
0.0
 40
0.0306297676734979
 40
0.1318750491961077
 40
0.2339308086332606
 40
0.3418312608861492
 40
0.4581089234170757
 40
0.5808936859526725
 40
0.7051677269082814
 40
0.8283295166330472
 40
0.9504476507720151
 40
1.0
 40
1.0
 40
1.0
 40
1.0
 10
114.4230768054365
 20
182.4204689361691
 30
0.0
 10
114.4228912877348
 20
182.4324500893964
 30
0.0
 10
114.4219812689799
 20
182.4765710564502
 30
0.0
 10
114.390340233833
 20
182.5580175881724
 30
0.0
 10
114.3322625018942
 20
182.6511075495088
 30
0.0
 10
114.2482077307767
 20
182.7354458614242
 30
0.0
 10
114.1401138854151
 20
182.80995361372
 30
0.0
 10
114.0081198569039
 20
182.8727778670141
 30
0.0
 10
113.856602332202
 20
182.9210568437584
 30
0.0
 10
113.6943175748945
 20
182.9528768141766
 30
0.0
 10
113.5539031675747
 20
182.9654981861251
 30
0.0
 10
113.4787561623614
 20
182.9665364911151
 30
0.0
 10
113.4533014649965
 20
182.9667885381807
 30
0.0
  0
SPLINE
  5
109
330
3C
100
AcDbEntity
  8
DV1_デフォルト
  6
CONTINUOUS
 62
     7
100
AcDbSpline
210
0.0
220
0.0
230
1.0
 70
     8
 71
     3
 72
    16
 73
    12
 74
     0
 42
0.0000000083037362
 43
0.0000000001
 40
0.0
 40
0.0
 40
0.0
 40
0.0
 40
0.0654163824652957
 40
0.188496618638248
 40
0.3124692133855775
 40
0.4380776493171759
 40
0.5662737022948717
 40
0.6975633577983649
 40
0.8084725006981072
 40
0.9118478737101389
 40
1.0
 40
1.0
 40
1.0
 40
1.0
 10
113.4533014649965
 20
182.9667885381807
 30
0.0
 10
113.4200547050497
 20
182.9663585804423
 30
0.0
 10
113.3386200213149
 20
182.9649172373431
 30
0.0
 10
113.192241083832
 20
182.949866966616
 30
0.0
 10
113.0314743711158
 20
182.9162125409413
 30
0.0
 10
112.8802540198007
 20
182.8655761320073
 30
0.0
 10
112.7444250149242
 20
182.7976133282397
 30
0.0
 10
112.6340325578688
 20
182.7152681434098
 30
0.0
 10
112.5534655378388
 20
182.6230476502528
 30
0.0
 10
112.5008642910508
 20
182.5268410472135
 30
0.0
 10
112.4889345627063
 20
182.4651315549548
 30
0.0
 10
112.4829221220283
 20
182.4315210686406
 30
0.0
  0
LINE
  5
10A
330
3C
100
AcDbEntity
  8
DV1_デフォルト
  6
CONTINUOUS
 62
     7
100
AcDbLine
 10
113.1041843496
 20
182.4012555575
 30
0.0
 11
113.1041843496
 21
182.5744606383
 31
0.0
  0
LINE
  5
10B
330
3C
100
AcDbEntity
  8
DV1_デフォルト
  6
CONTINUOUS
 62
     7
100
AcDbLine
 10
113.8024185804
 20
182.5744606383
 30
0.0
 11
113.8024185804
 21
182.4012555575
 31
0.0
  0
LINE
  5
10C
330
3C
100
AcDbEntity
  8
DV1_デフォルト
  6
CONTINUOUS
 62
     7
100
AcDbLine
 10
88.309068785
 20
181.7882880432
 30
0.0
 11
86.997534145
 21
181.7882880432
 31
0.0
  0
LINE
  5
10D
330
3C
100
AcDbEntity
  8
DV1_デフォルト
  6
CONTINUOUS
 62
     7
100
AcDbLine
 10
88.2725994846
 20
181.6282864255
 30
0.0
 11
87.0342224383
 21
181.6282864255
 31
0.0
  0
ELLIPSE
  5
10E
330
3C
100
AcDbEntity
  8
DV1_デフォルト
  6
CONTINUOUS
 62
     7
100
AcDbEllipse
 10
87.653301465
 20
181.708296263
 30
0.0
 11
-0.675000000000002
 21
1.040834085586084E-14
 31
0.0
210
0.0
220
0.0
230
1.0
 40
0.5000050554
 41
3.380879945670432
 42
6.043898015098963
  0
LINE
  5
10F
330
3C
100
AcDbEntity
  8
DV1_デフォルト
  6
CONTINUOUS
 62
     7
100
AcDbLine
 10
86.997534145
 20
181.7882880432
 30
0.0
 11
86.9975343312
 21
181.6751007517
 31
0.0
  0
LINE
  5
110
330
3C
100
AcDbEntity
  8
DV1_デフォルト
  6
CONTINUOUS
 62
     7
100
AcDbLine
 10
130.253301465
 20
183.8152030253
 30
0.0
 11
130.253301465
 21
143.3152030253
 31
0.0
  0
LINE
  5
111
330
3C
100
AcDbEntity
  8
DV1_デフォルト
  6
CONTINUOUS
 62
     7
100
AcDbLine
 10
130.453301465
 20
178.3652030253
 30
0.0
 11
130.453301465
 21
148.7652030253
 31
0.0
  0
LINE
  5
112
330
3C
100
AcDbEntity
  8
DV1_デフォルト
  6
CONTINUOUS
 62
     7
100
AcDbLine
 10
131.503301465
 20
175.5652030253
 30
0.0
 11
131.503301465
 21
151.5652030253
 31
0.0
  0
LINE
  5
113
330
3C
100
AcDbEntity
  8
DV1_デフォルト
  6
CONTINUOUS
 62
     7
100
AcDbLine
 10
132.203301465
 20
176.2652030253
 30
0.0
 11
132.203301465
 21
150.8652030253
 31
0.0
  0
LINE
  5
114
330
3C
100
AcDbEntity
  8
DV1_デフォルト
  6
CONTINUOUS
 62
     7
100
AcDbLine
 10
133.753301465
 20
176.2652030253
 30
0.0
 11
133.753301465
 21
150.8652030253
 31
0.0
  0
LINE
  5
115
330
3C
100
AcDbEntity
  8
DV1_デフォルト
  6
CONTINUOUS
 62
     7
100
AcDbLine
 10
134.453301465
 20
175.5652030253
 30
0.0
 11
134.453301465
 21
151.5652030253
 31
0.0
  0
LINE
  5
116
330
3C
100
AcDbEntity
  8
DV1_デフォルト
  6
CONTINUOUS
 62
     7
100
AcDbLine
 10
125.653301465
 20
184.1152030253
 30
0.0
 11
125.653301465
 21
143.0152030253
 31
0.0
  0
LINE
  5
117
330
3C
100
AcDbEntity
  8
DV1_デフォルト
  6
CONTINUOUS
 62
     7
100
AcDbLine
 10
125.853301465
 20
184.3152030253
 30
0.0
 11
125.853301465
 21
142.8152030253
 31
0.0
  0
LINE
  5
118
330
3C
100
AcDbEntity
  8
DV1_デフォルト
  6
CONTINUOUS
 62
     7
100
AcDbLine
 10
129.753301465
 20
184.3152030253
 30
0.0
 11
129.753301465
 21
142.8152030253
 31
0.0
  0
CIRCLE
  5
119
330
3C
100
AcDbEntity
  8
DV1_デフォルト
  6
CONTINUOUS
 62
     7
100
AcDbCircle
 10
127.453301465
 20
163.5652030253
 30
0.0
 40
0.6749999999999998
  0
LINE
  5
11A
330
3C
100
AcDbEntity
  8
DV1_デフォルト
  6
CONTINUOUS
 62
     7
100
AcDbLine
 10
130.253301465
 20
148.5652030253
 30
0.0
 11
130.453301465
 21
148.7652030253
 31
0.0
  0
LINE
  5
11B
330
3C
100
AcDbEntity
  8
DV1_デフォルト
  6
CONTINUOUS
 62
     7
100
AcDbLine
 10
130.453301465
 20
178.3652030253
 30
0.0
 11
130.253301465
 21
178.5652030253
 31
0.0
  0
LINE
  5
11C
330
3C
100
AcDbEntity
  8
DV1_デフォルト
  6
CONTINUOUS
 62
     7
100
AcDbLine
 10
130.453301465
 20
151.5652030253
 30
0.0
 11
131.503301465
 21
151.5652030253
 31
0.0
  0
LINE
  5
11D
330
3C
100
AcDbEntity
  8
DV1_デフォルト
  6
CONTINUOUS
 62
     7
100
AcDbLine
 10
131.503301465
 20
175.5652030253
 30
0.0
 11
130.453301465
 21
175.5652030253
 31
0.0
  0
LINE
  5
11E
330
3C
100
AcDbEntity
  8
DV1_デフォルト
  6
CONTINUOUS
 62
     7
100
AcDbLine
 10
132.203301465
 20
176.2652030253
 30
0.0
 11
131.503301465
 21
175.5652030253
 31
0.0
  0
LINE
  5
11F
330
3C
100
AcDbEntity
  8
DV1_デフォルト
  6
CONTINUOUS
 62
     7
100
AcDbLine
 10
131.503301465
 20
151.5652030253
 30
0.0
 11
132.203301465
 21
150.8652030253
 31
0.0
  0
LINE
  5
120
330
3C
100
AcDbEntity
  8
DV1_デフォルト
  6
CONTINUOUS
 62
     7
100
AcDbLine
 10
132.203301465
 20
150.8652030253
 30
0.0
 11
133.753301465
 21
150.8652030253
 31
0.0
  0
LINE
  5
121
330
3C
100
AcDbEntity
  8
DV1_デフォルト
  6
CONTINUOUS
 62
     7
100
AcDbLine
 10
133.753301465
 20
176.2652030253
 30
0.0
 11
132.203301465
 21
176.2652030253
 31
0.0
  0
LINE
  5
122
330
3C
100
AcDbEntity
  8
DV1_デフォルト
  6
CONTINUOUS
 62
     7
100
AcDbLine
 10
133.753301465
 20
150.8652030253
 30
0.0
 11
134.453301465
 21
151.5652030253
 31
0.0
  0
LINE
  5
123
330
3C
100
AcDbEntity
  8
DV1_デフォルト
  6
CONTINUOUS
 62
     7
100
AcDbLine
 10
134.453301465
 20
175.5652030253
 30
0.0
 11
133.753301465
 21
176.2652030253
 31
0.0
  0
LINE
  5
124
330
3C
100
AcDbEntity
  8
DV1_デフォルト
  6
CONTINUOUS
 62
     7
100
AcDbLine
 10
125.153301465
 20
143.4652030253
 30
0.0
 11
125.653301465
 21
143.4652030253
 31
0.0
  0
LINE
  5
125
330
3C
100
AcDbEntity
  8
DV1_デフォルト
  6
CONTINUOUS
 62
     7
100
AcDbLine
 10
125.653301465
 20
183.6652030253
 30
0.0
 11
125.153301465
 21
183.6652030253
 31
0.0
  0
LINE
  5
126
330
3C
100
AcDbEntity
  8
DV1_デフォルト
  6
CONTINUOUS
 62
     7
100
AcDbLine
 10
125.853301465
 20
184.3152030253
 30
0.0
 11
125.653301465
 21
184.1152030253
 31
0.0
  0
LINE
  5
127
330
3C
100
AcDbEntity
  8
DV1_デフォルト
  6
CONTINUOUS
 62
     7
100
AcDbLine
 10
125.653301465
 20
143.0152030253
 30
0.0
 11
125.853301465
 21
142.8152030253
 31
0.0
  0
LINE
  5
128
330
3C
100
AcDbEntity
  8
DV1_デフォルト
  6
CONTINUOUS
 62
     7
100
AcDbLine
 10
128.1860360691
 20
142.8152030253
 30
0.0
 11
129.753301465
 21
142.8152030253
 31
0.0
  0
LINE
  5
129
330
3C
100
AcDbEntity
  8
DV1_デフォルト
  6
CONTINUOUS
 62
     7
100
AcDbLine
 10
125.853301465
 20
142.8152030253
 30
0.0
 11
126.7205668609
 21
142.8152030253
 31
0.0
  0
LINE
  5
12A
330
3C
100
AcDbEntity
  8
DV1_デフォルト
  6
CONTINUOUS
 62
     7
100
AcDbLine
 10
126.7205668609
 20
184.3152030253
 30
0.0
 11
125.853301465
 21
184.3152030253
 31
0.0
  0
LINE
  5
12B
330
3C
100
AcDbEntity
  8
DV1_デフォルト
  6
CONTINUOUS
 62
     7
100
AcDbLine
 10
129.753301465
 20
184.3152030253
 30
0.0
 11
128.1860360691
 21
184.3152030253
 31
0.0
  0
ARC
  5
12C
330
3C
100
AcDbEntity
  8
DV1_デフォルト
  6
CONTINUOUS
 62
     7
100
AcDbCircle
 10
127.453301465
 20
163.5486335041
 30
0.0
 40
0.7472603224741962
100
AcDbArc
 50
191.0661239468
 51
348.9338760532
  0
LINE
  5
12D
330
3C
100
AcDbEntity
  8
DV1_デフォルト
  6
CONTINUOUS
 62
     7
100
AcDbLine
 10
128.1860360691
 20
163.4052030539
 30
0.0
 11
128.1866674688
 21
163.4052030539
 31
0.0
  0
LINE
  5
12E
330
3C
100
AcDbEntity
  8
DV1_デフォルト
  6
CONTINUOUS
 62
     7
100
AcDbLine
 10
126.7199354612
 20
163.4052030539
 30
0.0
 11
126.7205668609
 21
163.4052030539
 31
0.0
  0
LINE
  5
12F
330
3C
100
AcDbEntity
  8
DV1_デフォルト
  6
CONTINUOUS
 62
     7
100
AcDbLine
 10
128.1860360691
 20
163.4052030539
 30
0.0
 11
128.1866674688
 21
163.4052030539
 31
0.0
  0
LINE
  5
130
330
3C
100
AcDbEntity
  8
DV1_デフォルト
  6
CONTINUOUS
 62
     7
100
AcDbLine
 10
126.7199354612
 20
163.4052030539
 30
0.0
 11
126.7205668609
 21
163.4052030539
 31
0.0
  0
ARC
  5
131
330
3C
100
AcDbEntity
  8
DV1_デフォルト
  6
CONTINUOUS
 62
     7
100
AcDbCircle
 10
127.453301465
 20
163.5817997527
 30
0.0
 40
0.7472551119253639
100
AcDbArc
 50
11.064081004
 51
168.935918996
  0
LINE
  5
132
330
3C
100
AcDbEntity
  8
DV1_デフォルト
  6
CONTINUOUS
 62
     7
100
AcDbLine
 10
126.7205668609
 20
163.7252030539
 30
0.0
 11
126.7199354612
 21
163.7252030539
 31
0.0
  0
LINE
  5
133
330
3C
100
AcDbEntity
  8
DV1_デフォルト
  6
CONTINUOUS
 62
     7
100
AcDbLine
 10
128.1866674688
 20
163.7252030539
 30
0.0
 11
128.1860360691
 21
163.7252030539
 31
0.0
  0
LINE
  5
134
330
3C
100
AcDbEntity
  8
DV1_デフォルト
  6
CONTINUOUS
 62
     7
100
AcDbLine
 10
126.7205668609
 20
163.7252030539
 30
0.0
 11
126.7199354612
 21
163.7252030539
 31
0.0
  0
LINE
  5
135
330
3C
100
AcDbEntity
  8
DV1_デフォルト
  6
CONTINUOUS
 62
     7
100
AcDbLine
 10
128.1866674688
 20
163.7252030539
 30
0.0
 11
128.1860360691
 21
163.7252030539
 31
0.0
  0
ARC
  5
136
330
3C
100
AcDbEntity
  8
DV1_デフォルト
  6
CONTINUOUS
 62
     7
100
AcDbCircle
 10
127.453301465
 20
122.8363149363
 30
0.0
 40
19.99295987031019
100
AcDbArc
 50
87.8978497617
 51
92.1021502383
  0
ARC
  5
137
330
3C
100
AcDbEntity
  8
DV1_デフォルト
  6
CONTINUOUS
 62
     7
100
AcDbCircle
 10
127.453301465
 20
204.2941412172
 30
0.0
 40
19.99300993905195
100
AcDbArc
 50
267.8978550286
 51
272.1021449714
  0
LINE
  5
138
330
3C
100
AcDbEntity
  8
DV1_デフォルト
  6
CONTINUOUS
 62
     7
100
AcDbLine
 10
129.753301465
 20
142.8152030253
 30
0.0
 11
130.253301465
 21
143.3152030253
 31
0.0
  0
LINE
  5
139
330
3C
100
AcDbEntity
  8
DV1_デフォルト
  6
CONTINUOUS
 62
     7
100
AcDbLine
 10
130.253301465
 20
183.8152030253
 30
0.0
 11
129.753301465
 21
184.3152030253
 31
0.0
  0
ARC
  5
13A
330
3C
100
AcDbEntity
  8
DV1_デフォルト
  6
CONTINUOUS
 62
     7
100
AcDbCircle
 10
127.453301465
 20
163.5652030253
 30
0.0
 40
0.8499999999999996
100
AcDbArc
 50
75.0
 51
15.0
  0
LINE
  5
13B
330
3C
100
AcDbEntity
  8
DV1_デフォルト
  6
CONTINUOUS
 62
     7
100
AcDbLine
 10
125.153301465
 20
184.3652030253
 30
0.0
 11
125.153301465
 21
142.7652030253
 31
0.0
  0
LINE
  5
13C
330
3C
100
AcDbEntity
  8
DV1_デフォルト
  6
CONTINUOUS
 62
     7
100
AcDbLine
 10
124.953301465
 20
184.5652030253
 30
0.0
 11
124.953301465
 21
142.5652030253
 31
0.0
  0
LINE
  5
13D
330
3C
100
AcDbEntity
  8
DV1_デフォルト
  6
CONTINUOUS
 62
     7
100
AcDbLine
 10
105.853301465
 20
184.5652030253
 30
0.0
 11
105.853301465
 21
142.5652030253
 31
0.0
  0
LINE
  5
13E
330
3C
100
AcDbEntity
  8
DV1_デフォルト
  6
CONTINUOUS
 62
     7
100
AcDbLine
 10
105.653301465
 20
184.3652030253
 30
0.0
 11
105.653301465
 21
142.7652030253
 31
0.0
  0
LINE
  5
13F
330
3C
100
AcDbEntity
  8
DV1_デフォルト
  6
CONTINUOUS
 62
     7
100
AcDbLine
 10
124.953301465
 20
142.5652030253
 30
0.0
 11
125.153301465
 21
142.7652030253
 31
0.0
  0
LINE
  5
140
330
3C
100
AcDbEntity
  8
DV1_デフォルト
  6
CONTINUOUS
 62
     7
100
AcDbLine
 10
125.153301465
 20
184.3652030253
 30
0.0
 11
124.953301465
 21
184.5652030253
 31
0.0
  0
LINE
  5
141
330
3C
100
AcDbEntity
  8
DV1_デフォルト
  6
CONTINUOUS
 62
     7
100
AcDbLine
 10
105.853301465
 20
142.5652030253
 30
0.0
 11
124.953301465
 21
142.5652030253
 31
0.0
  0
LINE
  5
142
330
3C
100
AcDbEntity
  8
DV1_デフォルト
  6
CONTINUOUS
 62
     7
100
AcDbLine
 10
124.953301465
 20
184.5652030253
 30
0.0
 11
105.853301465
 21
184.5652030253
 31
0.0
  0
LINE
  5
143
330
3C
100
AcDbEntity
  8
DV1_デフォルト
  6
CONTINUOUS
 62
     7
100
AcDbLine
 10
105.853301465
 20
184.5652030253
 30
0.0
 11
105.653301465
 21
184.3652030253
 31
0.0
  0
LINE
  5
144
330
3C
100
AcDbEntity
  8
DV1_デフォルト
  6
CONTINUOUS
 62
     7
100
AcDbLine
 10
105.653301465
 20
142.7652030253
 30
0.0
 11
105.853301465
 21
142.5652030253
 31
0.0
  0
LINE
  5
145
330
3C
100
AcDbEntity
  8
DV1_デフォルト
  6
CONTINUOUS
 62
     7
100
AcDbLine
 10
88.2768828102
 20
145.5020999502
 30
0.0
 11
87.0319456261
 21
145.5020999502
 31
0.0
  0
LINE
  5
146
330
3C
100
AcDbEntity
  8
DV1_デフォルト
  6
CONTINUOUS
 62
     7
100
AcDbLine
 10
88.3090643795
 20
145.342101568
 30
0.0
 11
86.9975385505
 21
145.342101568
 31
0.0
  0
ELLIPSE
  5
147
330
3C
100
AcDbEntity
  8
DV1_デフォルト
  6
CONTINUOUS
 62
     7
100
AcDbEllipse
 10
87.653301465
 20
145.4221007591
 30
0.0
 11
0.675000000000002
 21
-3.177326454713996E-32
 31
0.0
210
0.0
220
0.0
230
1.0
 40
0.4999949445
 41
3.380907481524663
 42
6.043870479244716
  0
LINE
  5
148
330
3C
100
AcDbEntity
  8
DV1_デフォルト
  6
CONTINUOUS
 62
     7
100
AcDbLine
 10
86.9975385505
 20
145.4444308388
 30
0.0
 11
86.9975385505
 21
145.342101568
 31
0.0
  0
LINE
  5
149
330
3C
100
AcDbEntity
  8
DV1_デフォルト
  6
CONTINUOUS
 62
     7
100
AcDbLine
 10
88.3090643795
 20
145.3976043542
 30
0.0
 11
88.3090643795
 21
145.4508009991
 31
0.0
  0
LINE
  5
14A
330
3C
100
AcDbEntity
  8
DV1_デフォルト
  6
CONTINUOUS
 62
     7
100
AcDbLine
 10
130.453301465
 20
178.3652030253
 30
0.0
 11
130.453301465
 21
148.7652030253
 31
0.0
  0
LINE
  5
14C
330
3C
100
AcDbEntity
  8
DV1_デフォルト
  6
CENTER2
 62
     7
100
AcDbLine
 10
71.6036495305
 20
163.5652030253
 30
0.0
 11
137.3131446941
 21
163.5652030253
 31
0.0
  0
LINE
  5
14D
330
3C
100
AcDbEntity
  8
DV1_デフォルト
  6
CENTER2
 62
     7
100
AcDbLine
 10
146.211534512
 20
165.3329699782
 30
0.0
 11
149.747068418
 21
161.7974360723
 31
0.0
  0
LINE
  5
14E
330
3C
100
AcDbEntity
  8
DV1_デフォルト
  6
CENTER2
 62
     7
100
AcDbLine
 10
146.211534512
 20
161.7974360723
 30
0.0
 11
149.747068418
 21
165.3329699782
 31
0.0
  0
LINE
  5
14F
330
3C
100
AcDbEntity
  8
DV1_デフォルト
  6
CENTER2
 62
     7
100
AcDbLine
 10
131.703301465
 20
175.7652030253
 30
0.0
 11
134.253301465
 21
175.7652030253
 31
0.0
  0
LINE
  5
150
330
3C
100
AcDbEntity
  8
DV1_デフォルト
  6
CENTER2
 62
     7
100
AcDbLine
 10
131.703301465
 20
151.3652030253
 30
0.0
 11
134.253301465
 21
151.3652030253
 31
0.0
  0
LINE
  5
151
330
3C
100
AcDbEntity
  8
DV1_デフォルト
  6
CENTER2
 62
     7
100
AcDbLine
 10
72.953301465
 20
183.8152030253
 30
0.0
 11
75.953301465
 21
183.8152030253
 31
0.0
  0
LINE
  5
152
330
3C
100
AcDbEntity
  8
DV1_デフォルト
  6
CENTER2
 62
     7
100
AcDbLine
 10
72.953301465
 20
143.3152030253
 30
0.0
 11
75.953301465
 21
143.3152030253
 31
0.0
  0
ENDBLK
  5
154
330
3C
100
AcDbEntity
  8
0
100
AcDbBlockEnd
  0
BLOCK
  5
182
330
155
100
AcDbEntity
  8
0
100
AcDbBlockBegin
  2
GDIMGGROUP
 70
     0
 10
0.0
 20
0.0
 30
0.0
  3
GDIMGGROUP
  1

  0
POLYLINE
  5
157
330
155
100
AcDbEntity
  8
DEFAULT
  6
CONTINUOUS
 62
   136
100
AcDb2dPolyline
 66
     1
 10
0.0
 20
0.0
 30
0.0
  0
VERTEX
  5
1D3
330
157
100
AcDbEntity
  8
DEFAULT
  6
CONTINUOUS
 62
   136
100
AcDbVertex
100
AcDb2dVertex
 10
57.5150523148
 20
182.0052030899
 30
0.0
  0
VERTEX
  5
1D4
330
157
100
AcDbEntity
  8
DEFAULT
  6
CONTINUOUS
 62
   136
100
AcDbVertex
100
AcDb2dVertex
 10
57.0883856589
 20
184.5652030253
 30
0.0
  0
VERTEX
  5
1D5
330
157
100
AcDbEntity
  8
DEFAULT
  6
CONTINUOUS
 62
   136
100
AcDbVertex
100
AcDb2dVertex
 10
56.6617190031
 20
182.0052030899
 30
0.0
  0
SEQEND
  5
1D6
330
157
100
AcDbEntity
  8
DEFAULT
  6
CONTINUOUS
 62
   136
  0
POLYLINE
  5
158
330
155
100
AcDbEntity
  8
DEFAULT
  6
CONTINUOUS
 62
   136
100
AcDb2dPolyline
 66
     1
 10
0.0
 20
0.0
 30
0.0
  0
VERTEX
  5
1D7
330
158
100
AcDbEntity
  8
DEFAULT
  6
CONTINUOUS
 62
   136
100
AcDbVertex
100
AcDb2dVertex
 10
57.5150523148
 20
145.1252035268
 30
0.0
  0
VERTEX
  5
1D8
330
158
100
AcDbEntity
  8
DEFAULT
  6
CONTINUOUS
 62
   136
100
AcDbVertex
100
AcDb2dVertex
 10
57.0883856589
 20
142.5652035915
 30
0.0
  0
VERTEX
  5
1D9
330
158
100
AcDbEntity
  8
DEFAULT
  6
CONTINUOUS
 62
   136
100
AcDbVertex
100
AcDb2dVertex
 10
56.6617190031
 20
145.1252035268
 30
0.0
  0
SEQEND
  5
1DA
330
158
100
AcDbEntity
  8
DEFAULT
  6
CONTINUOUS
 62
   136
  0
LINE
  5
159
330
155
100
AcDbEntity
  8
DEFAULT
  6
CONTINUOUS
 62
   136
100
AcDbLine
 10
72.1293014676
 20
184.5652030253
 30
0.0
 11
55.8083856913
 21
184.5652030253
 31
0.0
  0
LINE
  5
15A
330
155
100
AcDbEntity
  8
DEFAULT
  6
CONTINUOUS
 62
   136
100
AcDbLine
 10
72.1293014676
 20
142.5652030253
 30
0.0
 11
55.8083856913
 21
142.5652030253
 31
0.0
  0
LINE
  5
15B
330
155
100
AcDbEntity
  8
DEFAULT
  6
CONTINUOUS
 62
   136
100
AcDbLine
 10
57.0883856589
 20
184.5652030253
 30
0.0
 11
57.0883856589
 21
142.5652035915
 31
0.0
  0
TEXT
  5
17F
330
155
100
AcDbEntity
  8
DEFAULT
  6
CONTINUOUS
 62
   136
100
AcDbText
 10
56.4483856589
 20
160.1043834539
 30
0.0
 40
2.56
  1
O
 50
90.0
  7
SEACAD_SEMECA1_TTF
 11
53.8883856589
 21
160.1043834539
 31
0.0
100
AcDbText
 73
     3
  0
TEXT
  5
181
330
155
100
AcDbEntity
  8
DEFAULT
  6
CONTINUOUS
 62
   136
100
AcDbText
 10
56.4483856589
 20
163.2796816995
 30
0.0
 40
2.56
  1
42
 50
90.0
  7
SEACAD_SEANSI_TTF
 11
53.8883856589
 21
163.2796816995
 31
0.0
100
AcDbText
 73
     3
  0
ENDBLK
  5
183
330
155
100
AcDbEntity
  8
0
100
AcDbBlockEnd
  0
BLOCK
  5
18E
330
184
100
AcDbEntity
  8
0
100
AcDbBlockBegin
  2
GDIMGGROUP1
 70
     0
 10
0.0
 20
0.0
 30
0.0
  3
GDIMGGROUP1
  1

  0
POLYLINE
  5
186
330
184
100
AcDbEntity
  8
DEFAULT
  6
CONTINUOUS
 62
   136
100
AcDb2dPolyline
 66
     1
 10
0.0
 20
0.0
 30
0.0
  0
VERTEX
  5
1DB
330
186
100
AcDbEntity
  8
DEFAULT
  6
CONTINUOUS
 62
   136
100
AcDbVertex
100
AcDb2dVertex
 10
64.707211978
 20
181.2552030899
 30
0.0
  0
VERTEX
  5
1DC
330
186
100
AcDbEntity
  8
DEFAULT
  6
CONTINUOUS
 62
   136
100
AcDbVertex
100
AcDb2dVertex
 10
64.2805453221
 20
183.8152030253
 30
0.0
  0
VERTEX
  5
1DD
330
186
100
AcDbEntity
  8
DEFAULT
  6
CONTINUOUS
 62
   136
100
AcDbVertex
100
AcDb2dVertex
 10
63.8538786662
 20
181.2552030899
 30
0.0
  0
SEQEND
  5
1DE
330
186
100
AcDbEntity
  8
DEFAULT
  6
CONTINUOUS
 62
   136
  0
POLYLINE
  5
187
330
184
100
AcDbEntity
  8
DEFAULT
  6
CONTINUOUS
 62
   136
100
AcDb2dPolyline
 66
     1
 10
0.0
 20
0.0
 30
0.0
  0
VERTEX
  5
1DF
330
187
100
AcDbEntity
  8
DEFAULT
  6
CONTINUOUS
 62
   136
100
AcDbVertex
100
AcDb2dVertex
 10
64.707211978
 20
145.8752028414
 30
0.0
  0
VERTEX
  5
1E0
330
187
100
AcDbEntity
  8
DEFAULT
  6
CONTINUOUS
 62
   136
100
AcDbVertex
100
AcDb2dVertex
 10
64.2805453221
 20
143.3152029061
 30
0.0
  0
VERTEX
  5
1E1
330
187
100
AcDbEntity
  8
DEFAULT
  6
CONTINUOUS
 62
   136
100
AcDbVertex
100
AcDb2dVertex
 10
63.8538786662
 20
145.8752028414
 30
0.0
  0
SEQEND
  5
1E2
330
187
100
AcDbEntity
  8
DEFAULT
  6
CONTINUOUS
 62
   136
  0
LINE
  5
188
330
184
100
AcDbEntity
  8
DEFAULT
  6
CONTINUOUS
 62
   136
100
AcDbLine
 10
71.9293014676
 20
183.8152030253
 30
0.0
 11
63.0005453544
 21
183.8152030253
 31
0.0
  0
LINE
  5
189
330
184
100
AcDbEntity
  8
DEFAULT
  6
CONTINUOUS
 62
   136
100
AcDbLine
 10
71.9293014676
 20
143.3152030253
 30
0.0
 11
63.0005453544
 21
143.3152030253
 31
0.0
  0
LINE
  5
18A
330
184
100
AcDbEntity
  8
DEFAULT
  6
CONTINUOUS
 62
   136
100
AcDbLine
 10
64.2805453221
 20
183.8152030253
 30
0.0
 11
64.2805453221
 21
143.3152029061
 31
0.0
  0
TEXT
  5
18B
330
184
100
AcDbEntity
  8
DEFAULT
  6
CONTINUOUS
 62
   136
100
AcDbText
 10
63.6405453221
 20
156.8269915836
 30
0.0
 40
2.56
  1
40.5
 50
90.0
  7
SEACAD_SEANSI_TTF
 11
61.0805453221
 21
156.8269915836
 31
0.0
100
AcDbText
 73
     3
  0
TEXT
  5
18C
330
184
100
AcDbEntity
  8
DEFAULT
  6
CONTINUOUS
 62
   136
100
AcDbText
 10
63.6405453221
 20
153.8132680063
 30
0.0
 40
2.56
  1
M
 50
90.0
  7
SEACAD_SEANSI_TTF
 11
61.0805453221
 21
153.8132680063
 31
0.0
100
AcDbText
 73
     3
  0
TEXT
  5
18D
330
184
100
AcDbEntity
  8
DEFAULT
  6
CONTINUOUS
 62
   136
100
AcDbText
 10
63.6405453221
 20
163.4829915836
 30
0.0
 40
2.56
  1
 P=0.5
 50
90.0
  7
SEACAD_SEANSI_TTF
 11
61.0805453221
 21
163.4829915836
 31
0.0
100
AcDbText
 73
     3
  0
ENDBLK
  5
18F
330
184
100
AcDbEntity
  8
0
100
AcDbBlockEnd
  0
BLOCK
  5
198
330
190
100
AcDbEntity
  8
0
100
AcDbBlockBegin
  2
GDIMGGROUP2
 70
     0
 10
0.0
 20
0.0
 30
0.0
  3
GDIMGGROUP2
  1

  0
POLYLINE
  5
192
330
190
100
AcDbEntity
  8
DEFAULT
  6
CONTINUOUS
 62
   136
100
AcDb2dPolyline
 66
     1
 10
0.0
 20
0.0
 30
0.0
  0
VERTEX
  5
1E3
330
192
100
AcDbEntity
  8
DEFAULT
  6
CONTINUOUS
 62
   136
100
AcDbVertex
100
AcDb2dVertex
 10
145.4193015297
 20
124.7657251289
 30
0.0
  0
VERTEX
  5
1E4
330
192
100
AcDbEntity
  8
DEFAULT
  6
CONTINUOUS
 62
   136
100
AcDbVertex
100
AcDb2dVertex
 10
147.979301465
 20
124.339058473
 30
0.0
  0
VERTEX
  5
1E5
330
192
100
AcDbEntity
  8
DEFAULT
  6
CONTINUOUS
 62
   136
100
AcDbVertex
100
AcDb2dVertex
 10
145.4193015297
 20
123.9123918172
 30
0.0
  0
SEQEND
  5
1E6
330
192
100
AcDbEntity
  8
DEFAULT
  6
CONTINUOUS
 62
   136
  0
POLYLINE
  5
193
330
190
100
AcDbEntity
  8
DEFAULT
  6
CONTINUOUS
 62
   136
100
AcDb2dPolyline
 66
     1
 10
0.0
 20
0.0
 30
0.0
  0
VERTEX
  5
1E7
330
193
100
AcDbEntity
  8
DEFAULT
  6
CONTINUOUS
 62
   136
100
AcDbVertex
100
AcDb2dVertex
 10
133.0133006622
 20
124.7657251289
 30
0.0
  0
VERTEX
  5
1E8
330
193
100
AcDbEntity
  8
DEFAULT
  6
CONTINUOUS
 62
   136
100
AcDbVertex
100
AcDb2dVertex
 10
130.4533007269
 20
124.339058473
 30
0.0
  0
VERTEX
  5
1E9
330
193
100
AcDbEntity
  8
DEFAULT
  6
CONTINUOUS
 62
   136
100
AcDbVertex
100
AcDb2dVertex
 10
133.0133006622
 20
123.9123918172
 30
0.0
  0
SEQEND
  5
1EA
330
193
100
AcDbEntity
  8
DEFAULT
  6
CONTINUOUS
 62
   136
  0
LINE
  5
194
330
190
100
AcDbEntity
  8
DEFAULT
  6
CONTINUOUS
 62
   136
100
AcDbLine
 10
147.979301465
 20
162.5412030279
 30
0.0
 11
147.979301465
 21
123.0590585054
 31
0.0
  0
LINE
  5
195
330
190
100
AcDbEntity
  8
DEFAULT
  6
CONTINUOUS
 62
   136
100
AcDbLine
 10
130.453301465
 20
147.7412030279
 30
0.0
 11
130.453301465
 21
123.0590585054
 31
0.0
  0
LINE
  5
196
330
190
100
AcDbEntity
  8
DEFAULT
  6
CONTINUOUS
 62
   136
100
AcDbLine
 10
147.979301465
 20
124.339058473
 30
0.0
 11
130.4533007269
 21
124.339058473
 31
0.0
  0
TEXT
  5
197
330
190
100
AcDbEntity
  8
DEFAULT
  6
CONTINUOUS
 62
   136
100
AcDbText
 10
134.1431303642
 20
124.979058473
 30
0.0
 40
2.56
  1
17.526
  7
SEACAD_SEANSI_TTF
 11
134.1431303642
 21
127.539058473
 31
0.0
100
AcDbText
 73
     3
  0
ENDBLK
  5
199
330
190
100
AcDbEntity
  8
0
100
AcDbBlockEnd
  0
BLOCK
  5
1A2
330
19A
100
AcDbEntity
  8
0
100
AcDbBlockBegin
  2
GDIMGGROUP3
 70
     0
 10
0.0
 20
0.0
 30
0.0
  3
GDIMGGROUP3
  1

  0
POLYLINE
  5
19C
330
19A
100
AcDbEntity
  8
DEFAULT
  6
CONTINUOUS
 62
   136
100
AcDb2dPolyline
 66
     1
 10
0.0
 20
0.0
 30
0.0
  0
VERTEX
  5
1EB
330
19C
100
AcDbEntity
  8
DEFAULT
  6
CONTINUOUS
 62
   136
100
AcDbVertex
100
AcDb2dVertex
 10
131.9893015193
 20
138.1966661296
 30
0.0
  0
VERTEX
  5
1EC
330
19C
100
AcDbEntity
  8
DEFAULT
  6
CONTINUOUS
 62
   136
100
AcDbVertex
100
AcDb2dVertex
 10
130.453301465
 20
137.9406661206
 30
0.0
  0
VERTEX
  5
1ED
330
19C
100
AcDbEntity
  8
DEFAULT
  6
CONTINUOUS
 62
   136
100
AcDbVertex
100
AcDb2dVertex
 10
131.9893015193
 20
137.6846661115
 30
0.0
  0
SEQEND
  5
1EE
330
19C
100
AcDbEntity
  8
DEFAULT
  6
CONTINUOUS
 62
   136
  0
POLYLINE
  5
19D
330
19A
100
AcDbEntity
  8
DEFAULT
  6
CONTINUOUS
 62
   136
100
AcDb2dPolyline
 66
     1
 10
0.0
 20
0.0
 30
0.0
  0
VERTEX
  5
1EF
330
19D
100
AcDbEntity
  8
DEFAULT
  6
CONTINUOUS
 62
   136
100
AcDbVertex
100
AcDb2dVertex
 10
132.9173016007
 20
138.1966661296
 30
0.0
  0
VERTEX
  5
1F0
330
19D
100
AcDbEntity
  8
DEFAULT
  6
CONTINUOUS
 62
   136
100
AcDbVertex
100
AcDb2dVertex
 10
134.453301655
 20
137.9406661206
 30
0.0
  0
VERTEX
  5
1F1
330
19D
100
AcDbEntity
  8
DEFAULT
  6
CONTINUOUS
 62
   136
100
AcDbVertex
100
AcDb2dVertex
 10
132.9173016007
 20
137.6846661115
 30
0.0
  0
SEQEND
  5
1F2
330
19D
100
AcDbEntity
  8
DEFAULT
  6
CONTINUOUS
 62
   136
  0
LINE
  5
19E
330
19A
100
AcDbEntity
  8
DEFAULT
  6
CONTINUOUS
 62
   136
100
AcDbLine
 10
130.453301465
 20
147.7412030279
 30
0.0
 11
130.453301465
 21
136.6606661529
 31
0.0
  0
LINE
  5
19F
330
19A
100
AcDbEntity
  8
DEFAULT
  6
CONTINUOUS
 62
   136
100
AcDbLine
 10
134.453301465
 20
150.5412030279
 30
0.0
 11
134.453301465
 21
136.6606661529
 31
0.0
  0
LINE
  5
1A0
330
19A
100
AcDbEntity
  8
DEFAULT
  6
CONTINUOUS
 62
   136
100
AcDbLine
 10
130.453301465
 20
137.9406661206
 30
0.0
 11
134.453301655
 21
137.9406661206
 31
0.0
  0
TEXT
  5
1A1
330
19A
100
AcDbEntity
  8
DEFAULT
  6
CONTINUOUS
 62
   136
100
AcDbText
 10
131.5167161941
 20
138.5806661206
 30
0.0
 40
2.56
  1
4
  7
SEACAD_SEANSI_TTF
 11
131.5167161941
 21
141.1406661206
 31
0.0
100
AcDbText
 73
     3
  0
ENDBLK
  5
1A3
330
19A
100
AcDbEntity
  8
0
100
AcDbBlockEnd
  0
BLOCK
  5
1AC
330
1A4
100
AcDbEntity
  8
0
100
AcDbBlockBegin
  2
GDIMGGROUP4
 70
     0
 10
0.0
 20
0.0
 30
0.0
  3
GDIMGGROUP4
  1

  0
POLYLINE
  5
1A6
330
1A4
100
AcDbEntity
  8
DEFAULT
  6
CONTINUOUS
 62
   136
100
AcDb2dPolyline
 66
     1
 10
0.0
 20
0.0
 30
0.0
  0
VERTEX
  5
1F3
330
1A6
100
AcDbEntity
  8
DEFAULT
  6
CONTINUOUS
 62
   136
100
AcDbVertex
100
AcDb2dVertex
 10
133.0133014003
 20
131.4413605979
 30
0.0
  0
VERTEX
  5
1F4
330
1A6
100
AcDbEntity
  8
DEFAULT
  6
CONTINUOUS
 62
   136
100
AcDbVertex
100
AcDb2dVertex
 10
130.453301465
 20
131.014693942
 30
0.0
  0
VERTEX
  5
1F5
330
1A6
100
AcDbEntity
  8
DEFAULT
  6
CONTINUOUS
 62
   136
100
AcDbVertex
100
AcDb2dVertex
 10
133.0133014003
 20
130.5880272861
 30
0.0
  0
SEQEND
  5
1F6
330
1A6
100
AcDbEntity
  8
DEFAULT
  6
CONTINUOUS
 62
   136
  0
POLYLINE
  5
1A7
330
1A4
100
AcDbEntity
  8
DEFAULT
  6
CONTINUOUS
 62
   136
100
AcDb2dPolyline
 66
     1
 10
0.0
 20
0.0
 30
0.0
  0
VERTEX
  5
1F7
330
1A7
100
AcDbEntity
  8
DEFAULT
  6
CONTINUOUS
 62
   136
100
AcDbVertex
100
AcDb2dVertex
 10
133.7933017517
 20
131.4413605979
 30
0.0
  0
VERTEX
  5
1F8
330
1A7
100
AcDbEntity
  8
DEFAULT
  6
CONTINUOUS
 62
   136
100
AcDbVertex
100
AcDb2dVertex
 10
136.353301687
 20
131.014693942
 30
0.0
  0
VERTEX
  5
1F9
330
1A7
100
AcDbEntity
  8
DEFAULT
  6
CONTINUOUS
 62
   136
100
AcDbVertex
100
AcDb2dVertex
 10
133.7933017517
 20
130.5880272861
 30
0.0
  0
SEQEND
  5
1FA
330
1A7
100
AcDbEntity
  8
DEFAULT
  6
CONTINUOUS
 62
   136
  0
LINE
  5
1A8
330
1A4
100
AcDbEntity
  8
DEFAULT
  6
CONTINUOUS
 62
   136
100
AcDbLine
 10
130.453301465
 20
147.7412030279
 30
0.0
 11
130.453301465
 21
129.7346939743
 31
0.0
  0
LINE
  5
1A9
330
1A4
100
AcDbEntity
  8
DEFAULT
  6
CONTINUOUS
 62
   136
100
AcDbLine
 10
136.353301465
 20
151.5412030279
 30
0.0
 11
136.353301465
 21
129.7346939743
 31
0.0
  0
LINE
  5
1AA
330
1A4
100
AcDbEntity
  8
DEFAULT
  6
CONTINUOUS
 62
   136
100
AcDbLine
 10
130.453301465
 20
131.014693942
 30
0.0
 11
136.353301687
 21
131.014693942
 31
0.0
  0
TEXT
  5
1AB
330
1A4
100
AcDbEntity
  8
DEFAULT
  6
CONTINUOUS
 62
   136
100
AcDbText
 10
131.1398869419
 20
131.654693942
 30
0.0
 40
2.56
  1
5.9
  7
SEACAD_SEANSI_TTF
 11
131.1398869419
 21
134.214693942
 31
0.0
100
AcDbText
 73
     3
  0
ENDBLK
  5
1AD
330
1A4
100
AcDbEntity
  8
0
100
AcDbBlockEnd
  0
BLOCK
  5
1B6
330
1AE
100
AcDbEntity
  8
0
100
AcDbBlockBegin
  2
GDIMGGROUP5
 70
     0
 10
0.0
 20
0.0
 30
0.0
  3
GDIMGGROUP5
  1

  0
POLYLINE
  5
1B0
330
1AE
100
AcDbEntity
  8
DEFAULT
  6
CONTINUOUS
 62
   136
100
AcDb2dPolyline
 66
     1
 10
0.0
 20
0.0
 30
0.0
  0
VERTEX
  5
1FB
330
1B0
100
AcDbEntity
  8
DEFAULT
  6
CONTINUOUS
 62
   136
100
AcDbVertex
100
AcDb2dVertex
 10
127.8933015297
 20
124.7657242021
 30
0.0
  0
VERTEX
  5
1FC
330
1B0
100
AcDbEntity
  8
DEFAULT
  6
CONTINUOUS
 62
   136
100
AcDbVertex
100
AcDb2dVertex
 10
130.453301465
 20
124.3390575462
 30
0.0
  0
VERTEX
  5
1FD
330
1B0
100
AcDbEntity
  8
DEFAULT
  6
CONTINUOUS
 62
   136
100
AcDbVertex
100
AcDb2dVertex
 10
127.8933015297
 20
123.9123908903
 30
0.0
  0
SEQEND
  5
1FE
330
1B0
100
AcDbEntity
  8
DEFAULT
  6
CONTINUOUS
 62
   136
  0
POLYLINE
  5
1B1
330
1AE
100
AcDbEntity
  8
DEFAULT
  6
CONTINUOUS
 62
   136
100
AcDb2dPolyline
 66
     1
 10
0.0
 20
0.0
 30
0.0
  0
VERTEX
  5
1FF
330
1B1
100
AcDbEntity
  8
DEFAULT
  6
CONTINUOUS
 62
   136
100
AcDbVertex
100
AcDb2dVertex
 10
75.5133003572
 20
124.7657242021
 30
0.0
  0
VERTEX
  5
200
330
1B1
100
AcDbEntity
  8
DEFAULT
  6
CONTINUOUS
 62
   136
100
AcDbVertex
100
AcDb2dVertex
 10
72.9533004219
 20
124.3390575462
 30
0.0
  0
VERTEX
  5
201
330
1B1
100
AcDbEntity
  8
DEFAULT
  6
CONTINUOUS
 62
   136
100
AcDbVertex
100
AcDb2dVertex
 10
75.5133003572
 20
123.9123908903
 30
0.0
  0
SEQEND
  5
202
330
1B1
100
AcDbEntity
  8
DEFAULT
  6
CONTINUOUS
 62
   136
  0
LINE
  5
1B2
330
1AE
100
AcDbEntity
  8
DEFAULT
  6
CONTINUOUS
 62
   136
100
AcDbLine
 10
130.453301465
 20
147.7412030279
 30
0.0
 11
130.453301465
 21
123.0590575785
 31
0.0
  0
LINE
  5
1B3
330
1AE
100
AcDbEntity
  8
DEFAULT
  6
CONTINUOUS
 62
   136
100
AcDbLine
 10
72.953301465
 20
141.7412030279
 30
0.0
 11
72.953301465
 21
123.0590575785
 31
0.0
  0
LINE
  5
1B4
330
1AE
100
AcDbEntity
  8
DEFAULT
  6
CONTINUOUS
 62
   136
100
AcDbLine
 10
130.453301465
 20
124.3390575462
 30
0.0
 11
72.9533004219
 21
124.3390575462
 31
0.0
  0
TEXT
  5
1B5
330
1AE
100
AcDbEntity
  8
DEFAULT
  6
CONTINUOUS
 62
   136
100
AcDbText
 10
98.5033009435
 20
124.9790575462
 30
0.0
 40
2.56
  1
57.5
  7
SEACAD_SEANSI_TTF
 11
98.5033009435
 21
127.5390575462
 31
0.0
100
AcDbText
 73
     3
  0
ENDBLK
  5
1B7
330
1AE
100
AcDbEntity
  8
0
100
AcDbBlockEnd
  0
BLOCK
  5
1C0
330
1B8
100
AcDbEntity
  8
0
100
AcDbBlockBegin
  2
GDIMGGROUP6
 70
     0
 10
0.0
 20
0.0
 30
0.0
  3
GDIMGGROUP6
  1

  0
POLYLINE
  5
1BA
330
1B8
100
AcDbEntity
  8
DEFAULT
  6
CONTINUOUS
 62
   136
100
AcDb2dPolyline
 66
     1
 10
0.0
 20
0.0
 30
0.0
  0
VERTEX
  5
203
330
1BA
100
AcDbEntity
  8
DEFAULT
  6
CONTINUOUS
 62
   136
100
AcDbVertex
100
AcDb2dVertex
 10
160.9881932107
 20
153.4252029606
 30
0.0
  0
VERTEX
  5
204
330
1BA
100
AcDbEntity
  8
DEFAULT
  6
CONTINUOUS
 62
   136
100
AcDbVertex
100
AcDb2dVertex
 10
161.4148598666
 20
150.8652030253
 30
0.0
  0
VERTEX
  5
205
330
1BA
100
AcDbEntity
  8
DEFAULT
  6
CONTINUOUS
 62
   136
100
AcDbVertex
100
AcDb2dVertex
 10
161.8415265225
 20
153.4252029606
 30
0.0
  0
SEQEND
  5
206
330
1BA
100
AcDbEntity
  8
DEFAULT
  6
CONTINUOUS
 62
   136
  0
POLYLINE
  5
1BB
330
1B8
100
AcDbEntity
  8
DEFAULT
  6
CONTINUOUS
 62
   136
100
AcDb2dPolyline
 66
     1
 10
0.0
 20
0.0
 30
0.0
  0
VERTEX
  5
207
330
1BB
100
AcDbEntity
  8
DEFAULT
  6
CONTINUOUS
 62
   136
100
AcDbVertex
100
AcDb2dVertex
 10
160.9881932107
 20
173.705202783
 30
0.0
  0
VERTEX
  5
208
330
1BB
100
AcDbEntity
  8
DEFAULT
  6
CONTINUOUS
 62
   136
100
AcDbVertex
100
AcDb2dVertex
 10
161.4148598666
 20
176.2652027183
 30
0.0
  0
VERTEX
  5
209
330
1BB
100
AcDbEntity
  8
DEFAULT
  6
CONTINUOUS
 62
   136
100
AcDbVertex
100
AcDb2dVertex
 10
161.8415265225
 20
173.705202783
 30
0.0
  0
SEQEND
  5
20A
330
1BB
100
AcDbEntity
  8
DEFAULT
  6
CONTINUOUS
 62
   136
  0
LINE
  5
1BC
330
1B8
100
AcDbEntity
  8
DEFAULT
  6
CONTINUOUS
 62
   136
100
AcDbLine
 10
134.7773015069
 20
150.8652030253
 30
0.0
 11
162.6948598342
 21
150.8652030253
 31
0.0
  0
LINE
  5
1BD
330
1B8
100
AcDbEntity
  8
DEFAULT
  6
CONTINUOUS
 62
   136
100
AcDbLine
 10
134.7773015069
 20
176.2652030253
 30
0.0
 11
162.6948598342
 21
176.2652030253
 31
0.0
  0
LINE
  5
1BE
330
1B8
100
AcDbEntity
  8
DEFAULT
  6
CONTINUOUS
 62
   136
100
AcDbLine
 10
161.4148598666
 20
150.8652030253
 30
0.0
 11
161.4148598666
 21
176.2652027183
 31
0.0
  0
TEXT
  5
1BF
330
1B8
100
AcDbEntity
  8
DEFAULT
  6
CONTINUOUS
 62
   136
100
AcDbText
 10
160.7748598666
 20
154.2274467742
 30
0.0
 40
2.56
  1
1-32UN-2A
 50
90.0
  7
SEACAD_SEANSI_TTF
 11
158.2148598666
 21
154.2274467742
 31
0.0
100
AcDbText
 73
     3
  0
ENDBLK
  5
1C1
330
1B8
100
AcDbEntity
  8
0
100
AcDbBlockEnd
  0
BLOCK
  5
1CB
330
1C2
100
AcDbEntity
  8
0
100
AcDbBlockBegin
  2
GDIMGGROUP7
 70
     0
 10
0.0
 20
0.0
 30
0.0
  3
GDIMGGROUP7
  1

  0
POLYLINE
  5
1C4
330
1C2
100
AcDbEntity
  8
DEFAULT
  6
CONTINUOUS
 62
   136
100
AcDb2dPolyline
 66
     1
 10
0.0
 20
0.0
 30
0.0
  0
VERTEX
  5
20B
330
1C4
100
AcDbEntity
  8
DEFAULT
  6
CONTINUOUS
 62
   136
100
AcDbVertex
100
AcDb2dVertex
 10
155.0331250069
 20
172.2052030899
 30
0.0
  0
VERTEX
  5
20C
330
1C4
100
AcDbEntity
  8
DEFAULT
  6
CONTINUOUS
 62
   136
100
AcDbVertex
100
AcDb2dVertex
 10
155.4597916628
 20
174.7652030253
 30
0.0
  0
VERTEX
  5
20D
330
1C4
100
AcDbEntity
  8
DEFAULT
  6
CONTINUOUS
 62
   136
100
AcDbVertex
100
AcDb2dVertex
 10
155.8864583187
 20
172.2052030899
 30
0.0
  0
SEQEND
  5
20E
330
1C4
100
AcDbEntity
  8
DEFAULT
  6
CONTINUOUS
 62
   136
  0
POLYLINE
  5
1C5
330
1C2
100
AcDbEntity
  8
DEFAULT
  6
CONTINUOUS
 62
   136
100
AcDb2dPolyline
 66
     1
 10
0.0
 20
0.0
 30
0.0
  0
VERTEX
  5
20F
330
1C5
100
AcDbEntity
  8
DEFAULT
  6
CONTINUOUS
 62
   136
100
AcDbVertex
100
AcDb2dVertex
 10
155.0331250069
 20
154.9252037593
 30
0.0
  0
VERTEX
  5
210
330
1C5
100
AcDbEntity
  8
DEFAULT
  6
CONTINUOUS
 62
   136
100
AcDbVertex
100
AcDb2dVertex
 10
155.4597916628
 20
152.365203824
 30
0.0
  0
VERTEX
  5
211
330
1C5
100
AcDbEntity
  8
DEFAULT
  6
CONTINUOUS
 62
   136
100
AcDbVertex
100
AcDb2dVertex
 10
155.8864583187
 20
154.9252037593
 30
0.0
  0
SEQEND
  5
212
330
1C5
100
AcDbEntity
  8
DEFAULT
  6
CONTINUOUS
 62
   136
  0
LINE
  5
1C6
330
1C2
100
AcDbEntity
  8
DEFAULT
  6
CONTINUOUS
 62
   136
100
AcDbLine
 10
137.1773014624
 20
174.7652030253
 30
0.0
 11
156.7397916304
 21
174.7652030253
 31
0.0
  0
LINE
  5
1C7
330
1C2
100
AcDbEntity
  8
DEFAULT
  6
CONTINUOUS
 62
   136
100
AcDbLine
 10
137.1773014624
 20
152.3652030253
 30
0.0
 11
156.7397916304
 21
152.3652030253
 31
0.0
  0
LINE
  5
1C8
330
1C2
100
AcDbEntity
  8
DEFAULT
  6
CONTINUOUS
 62
   136
100
AcDbLine
 10
155.4597916628
 20
174.7652030253
 30
0.0
 11
155.4597916628
 21
152.365203824
 31
0.0
  0
TEXT
  5
1C9
330
1C2
100
AcDbEntity
  8
DEFAULT
  6
CONTINUOUS
 62
   136
100
AcDbText
 10
154.8197916628
 20
158.7775543018
 30
0.0
 40
2.56
  1
O
 50
90.0
  7
SEACAD_SEMECA1_TTF
 11
152.2597916628
 21
158.7775543018
 31
0.0
100
AcDbText
 73
     3
  0
TEXT
  5
1CA
330
1C2
100
AcDbEntity
  8
DEFAULT
  6
CONTINUOUS
 62
   136
100
AcDbText
 10
154.8197916628
 20
161.9528525474
 30
0.0
 40
2.56
  1
22.4
 50
90.0
  7
SEACAD_SEANSI_TTF
 11
152.2597916628
 21
161.9528525474
 31
0.0
100
AcDbText
 73
     3
  0
ENDBLK
  5
1CC
330
1C2
100
AcDbEntity
  8
0
100
AcDbBlockEnd
  0
ENDSEC
  0
SECTION
  2
ENTITIES
  0
INSERT
  5
3D
330
1F
100
AcDbEntity
  8
DEFAULT
100
AcDbBlockReference
  2
SE
 10
0.0
 20
0.0
 30
0.0
  0
INSERT
  5
156
330
1F
100
AcDbEntity
  8
DEFAULT
100
AcDbBlockReference
  2
GDIMGGROUP
 10
0.0
 20
0.0
 30
0.0
  0
INSERT
  5
185
330
1F
100
AcDbEntity
  8
DEFAULT
100
AcDbBlockReference
  2
GDIMGGROUP1
 10
0.0
 20
0.0
 30
0.0
  0
INSERT
  5
191
330
1F
100
AcDbEntity
  8
DEFAULT
100
AcDbBlockReference
  2
GDIMGGROUP2
 10
0.0
 20
0.0
 30
0.0
  0
INSERT
  5
19B
330
1F
100
AcDbEntity
  8
DEFAULT
100
AcDbBlockReference
  2
GDIMGGROUP3
 10
0.0
 20
0.0
 30
0.0
  0
INSERT
  5
1A5
330
1F
100
AcDbEntity
  8
DEFAULT
100
AcDbBlockReference
  2
GDIMGGROUP4
 10
0.0
 20
0.0
 30
0.0
  0
INSERT
  5
1AF
330
1F
100
AcDbEntity
  8
DEFAULT
100
AcDbBlockReference
  2
GDIMGGROUP5
 10
0.0
 20
0.0
 30
0.0
  0
INSERT
  5
1B9
330
1F
100
AcDbEntity
  8
DEFAULT
100
AcDbBlockReference
  2
GDIMGGROUP6
 10
0.0
 20
0.0
 30
0.0
  0
INSERT
  5
1C3
330
1F
100
AcDbEntity
  8
DEFAULT
100
AcDbBlockReference
  2
GDIMGGROUP7
 10
0.0
 20
0.0
 30
0.0
  0
ENDSEC
  0
SECTION
  2
OBJECTS
  0
DICTIONARY
  5
C
330
0
100
AcDbDictionary
  3
ACAD_GROUP
350
D
  3
ACAD_LAYOUT
350
1A
  3
ACAD_MLEADERSTYLE
350
1CF
  3
ACAD_MLINESTYLE
350
17
  3
ACAD_PLOTSETTINGS
350
19
  3
ACAD_SCALELIST
350
15C
  3
ACAD_VISUALSTYLE
350
2A
  3
ACDBVARIABLEDICTIONARY
350
1CD
1001
ACAD
1000
TREAT_AS_HARD
1070
     0
  0
DICTIONARY
  5
D
102
{ACAD_REACTORS
330
C
102
}
330
C
100
AcDbDictionary
1001
ACAD
1000
TREAT_AS_HARD
1070
     0
  0
DICTIONARY
  5
1A
102
{ACAD_REACTORS
330
C
102
}
330
C
100
AcDbDictionary
1001
ACAD
1000
TREAT_AS_HARD
1070
     0
  0
DICTIONARY
  5
1CF
102
{ACAD_REACTORS
330
C
102
}
330
C
100
AcDbDictionary
1001
ACAD
1000
TREAT_AS_HARD
1070
     0
  0
DICTIONARY
  5
17
102
{ACAD_REACTORS
330
C
102
}
330
C
100
AcDbDictionary
  3
STANDARD
350
18
1001
ACAD
1000
TREAT_AS_HARD
1070
     0
  0
DICTIONARY
  5
19
102
{ACAD_REACTORS
330
C
102
}
330
C
100
AcDbDictionary
1001
ACAD
1000
TREAT_AS_HARD
1070
     0
  0
DICTIONARY
  5
15C
102
{ACAD_REACTORS
330
C
102
}
330
C
100
AcDbDictionary
  3
A0
350
15D
  3
A1
350
15E
  3
A2
350
15F
  3
A3
350
160
  3
A4
350
161
  3
A5
350
162
  3
A6
350
163
  3
A7
350
164
  3
A8
350
165
  3
A9
350
166
  3
B0
350
167
  3
B1
350
168
  3
B2
350
169
  3
B3
350
16A
  3
B4
350
16B
  3
B5
350
16C
  3
B6
350
16D
  3
B7
350
16E
  3
B8
350
16F
  3
B9
350
170
  3
C0
350
171
  3
C1
350
172
  3
C2
350
173
  3
C3
350
174
  3
C4
350
175
  3
C5
350
176
  3
C6
350
177
  3
C7
350
178
  3
C8
350
179
  3
C9
350
17A
  3
D0
350
17B
  3
D1
350
17C
  3
D2
350
17D
1001
ACAD
1000
TREAT_AS_HARD
1070
     0
  0
DICTIONARY
  5
2A
102
{ACAD_REACTORS
330
C
102
}
330
C
100
AcDbDictionary
  3
2DWIREFRAME
350
2F
  3
3D_HIDDEN
350
31
  3
3DWIREFRAME
350
30
  3
BASIC
350
32
  3
BRIGHTEN
350
36
  3
COLORCHANGE
350
3A
  3
CONCEPTUAL
350
34
  3
DIM
350
35
  3
FACEPATTERN
350
39
  3
FLAT
350
2B
  3
FLATWITHEDGES
350
2C
  3
GOURAUD
350
2D
  3
GOURAUDWITHEDGES
350
2E
  3
LINEPATTERN
350
38
  3
REALISTIC
350
33
  3
THICKEN
350
37
1001
ACAD
1000
TREAT_AS_HARD
1070
     0
  0
DICTIONARY
  5
1CD
102
{ACAD_REACTORS
330
C
102
}
330
C
100
AcDbDictionary
  3
CANNOSCALE
350
1D2
  3
PSOLHEIGHT
350
1D1
  3
PSOLWIDTH
350
1D0
1001
ACAD
1000
TREAT_AS_HARD
1070
     0
  0
MLINESTYLE
  5
18
102
{ACAD_REACTORS
330
17
102
}
330
17
100
AcDbMlineStyle
  2
Standard
 70
     0
  3

 62
   256
 51
90.0
 52
90.0
 71
     2
 49
0.5
 62
   256
  6
BYLAYER
 49
-0.5
 62
   256
  6
BYLAYER
  0
ACAD_PROXY_OBJECT
  5
15D
102
{ACAD_REACTORS
330
15C
102
}
330
15C
100
AcDbZombieObject
 90
      499
 91
      502
 93
       41
310
903313A31580
  0
ACAD_PROXY_OBJECT
  5
15E
102
{ACAD_REACTORS
330
15C
102
}
330
15C
100
AcDbZombieObject
 90
      499
 91
      502
 93
      105
310
903313A324000000000000004000
  0
ACAD_PROXY_OBJECT
  5
15F
102
{ACAD_REACTORS
330
15C
102
}
330
15C
100
AcDbZombieObject
 90
      499
 91
      502
 93
      105
310
903313A344000000000000104000
  0
ACAD_PROXY_OBJECT
  5
160
102
{ACAD_REACTORS
330
15C
102
}
330
15C
100
AcDbZombieObject
 90
      499
 91
      502
 93
      105
310
903313A354000000000000144000
  0
ACAD_PROXY_OBJECT
  5
161
102
{ACAD_REACTORS
330
15C
102
}
330
15C
100
AcDbZombieObject
 90
      499
 91
      502
 93
      105
310
903313A384000000000000204000
  0
ACAD_PROXY_OBJECT
  5
162
102
{ACAD_REACTORS
330
15C
102
}
330
15C
100
AcDbZombieObject
 90
      499
 91
      502
 93
      113
310
904313A31304000000000000244000
  0
ACAD_PROXY_OBJECT
  5
163
102
{ACAD_REACTORS
330
15C
102
}
330
15C
100
AcDbZombieObject
 90
      499
 91
      502
 93
      113
310
904313A31364000000000000304000
  0
ACAD_PROXY_OBJECT
  5
164
102
{ACAD_REACTORS
330
15C
102
}
330
15C
100
AcDbZombieObject
 90
      499
 91
      502
 93
      113
310
904313A32304000000000000344000
  0
ACAD_PROXY_OBJECT
  5
165
102
{ACAD_REACTORS
330
15C
102
}
330
15C
100
AcDbZombieObject
 90
      499
 91
      502
 93
      113
310
904313A333040000000000003E4000
  0
ACAD_PROXY_OBJECT
  5
166
102
{ACAD_REACTORS
330
15C
102
}
330
15C
100
AcDbZombieObject
 90
      499
 91
      502
 93
      113
310
904313A34304000000000000444000
  0
ACAD_PROXY_OBJECT
  5
167
102
{ACAD_REACTORS
330
15C
102
}
330
15C
100
AcDbZombieObject
 90
      499
 91
      502
 93
      113
310
904313A35304000000000000494000
  0
ACAD_PROXY_OBJECT
  5
168
102
{ACAD_REACTORS
330
15C
102
}
330
15C
100
AcDbZombieObject
 90
      499
 91
      502
 93
      121
310
905313A3130304000000000000594000
  0
ACAD_PROXY_OBJECT
  5
169
102
{ACAD_REACTORS
330
15C
102
}
330
15C
100
AcDbZombieObject
 90
      499
 91
      502
 93
      105
310
903323A310000000000000010100
  0
ACAD_PROXY_OBJECT
  5
16A
102
{ACAD_REACTORS
330
15C
102
}
330
15C
100
AcDbZombieObject
 90
      499
 91
      502
 93
      105
310
903343A310000000000000410100
  0
ACAD_PROXY_OBJECT
  5
16B
102
{ACAD_REACTORS
330
15C
102
}
330
15C
100
AcDbZombieObject
 90
      499
 91
      502
 93
      105
310
903383A310000000000000810100
  0
ACAD_PROXY_OBJECT
  5
16C
102
{ACAD_REACTORS
330
15C
102
}
330
15C
100
AcDbZombieObject
 90
      499
 91
      502
 93
      113
310
90431303A310000000000000910100
  0
ACAD_PROXY_OBJECT
  5
16D
102
{ACAD_REACTORS
330
15C
102
}
330
15C
100
AcDbZombieObject
 90
      499
 91
      502
 93
      121
310
9053130303A310000000000001650100
  0
ACAD_PROXY_OBJECT
  5
16E
102
{ACAD_REACTORS
330
15C
102
}
330
15C
100
AcDbZombieObject
 90
      499
 91
      502
 93
      257
310
90E312F31323822203D2031272D3022000000000000200FC000000000000284000
  0
ACAD_PROXY_OBJECT
  5
16F
102
{ACAD_REACTORS
330
15C
102
}
330
15C
100
AcDbZombieObject
 90
      499
 91
      502
 93
      249
310
90D312F363422203D2031272D3022000000000000240FC000000000000284000
  0
ACAD_PROXY_OBJECT
  5
170
102
{ACAD_REACTORS
330
15C
102
}
330
15C
100
AcDbZombieObject
 90
      499
 91
      502
 93
      249
310
90D312F333222203D2031272D3022000000000000280FC000000000000284000
  0
ACAD_PROXY_OBJECT
  5
171
102
{ACAD_REACTORS
330
15C
102
}
330
15C
100
AcDbZombieObject
 90
      499
 91
      502
 93
      249
310
90D312F313622203D2031272D30220000000000002C0FC000000000000284000
  0
ACAD_PROXY_OBJECT
  5
172
102
{ACAD_REACTORS
330
15C
102
}
330
15C
100
AcDbZombieObject
 90
      499
 91
      502
 93
      249
310
90D332F333222203D2031272D30220000000000002E0FC000000000000284000
  0
ACAD_PROXY_OBJECT
  5
173
102
{ACAD_REACTORS
330
15C
102
}
330
15C
100
AcDbZombieObject
 90
      499
 91
      502
 93
      241
310
90C312F3822203D2031272D3022000000000000300FC000000000000284000
  0
ACAD_PROXY_OBJECT
  5
174
102
{ACAD_REACTORS
330
15C
102
}
330
15C
100
AcDbZombieObject
 90
      499
 91
      502
 93
      249
310
90D332F313622203D2031272D3022000000000000320FC000000000000284000
  0
ACAD_PROXY_OBJECT
  5
175
102
{ACAD_REACTORS
330
15C
102
}
330
15C
100
AcDbZombieObject
 90
      499
 91
      502
 93
      241
310
90C312F3422203D2031272D3022000000000000340FC000000000000284000
  0
ACAD_PROXY_OBJECT
  5
176
102
{ACAD_REACTORS
330
15C
102
}
330
15C
100
AcDbZombieObject
 90
      499
 91
      502
 93
      241
310
90C332F3822203D2031272D3022000000000000360FC000000000000284000
  0
ACAD_PROXY_OBJECT
  5
177
102
{ACAD_REACTORS
330
15C
102
}
330
15C
100
AcDbZombieObject
 90
      499
 91
      502
 93
      241
310
90C312F3222203D2031272D3022000000000000380FC000000000000284000
  0
ACAD_PROXY_OBJECT
  5
178
102
{ACAD_REACTORS
330
15C
102
}
330
15C
100
AcDbZombieObject
 90
      499
 91
      502
 93
      241
310
90C332F3422203D2031272D30220000000000003A0FC000000000000284000
  0
ACAD_PROXY_OBJECT
  5
179
102
{ACAD_REACTORS
330
15C
102
}
330
15C
100
AcDbZombieObject
 90
      499
 91
      502
 93
      161
310
90A3122203D2031272D30224000000000000284000
  0
ACAD_PROXY_OBJECT
  5
17A
102
{ACAD_REACTORS
330
15C
102
}
330
15C
100
AcDbZombieObject
 90
      499
 91
      502
 93
      257
310
90E312D312F3222203D2031272D30220000000000003E0FC000000000000284000
  0
ACAD_PROXY_OBJECT
  5
17B
102
{ACAD_REACTORS
330
15C
102
}
330
15C
100
AcDbZombieObject
 90
      499
 91
      502
 93
      225
310
90A3322203D2031272D302200000000000002100000000000000284000
  0
ACAD_PROXY_OBJECT
  5
17C
102
{ACAD_REACTORS
330
15C
102
}
330
15C
100
AcDbZombieObject
 90
      499
 91
      502
 93
      225
310
90A3622203D2031272D302200000000000006100000000000000284000
  0
ACAD_PROXY_OBJECT
  5
17D
102
{ACAD_REACTORS
330
15C
102
}
330
15C
100
AcDbZombieObject
 90
      499
 91
      502
 93
      249
310
90D31272D3022203D2031272D30220000000000000A100000000000000284000
  0
ACAD_PROXY_OBJECT
  5
2F
102
{ACAD_REACTORS
330
2A
102
}
330
2A
100
AcDbZombieObject
 90
      499
 91
      501
 93
      436
310
42CC9915DA5C99599C985B595049028333333333333E3BF0000000000000FB0107901411070040501600405405064090741402480A0340
1001
ACAD
1000
AcDbSavedByObjectVersion
1070
     0
  0
ACAD_PROXY_OBJECT
  5
31
102
{ACAD_REACTORS
330
2A
102
}
330
2A
100
AcDbZombieObject
 90
      499
 91
      501
 93
      500
310
424CD108121A5919195B90640502408333333333333E3BF0000000000000FB01079024090700405020000000000001110200405405064090740C02480A0340
1001
ACAD
1000
AcDbSavedByObjectVersion
1070
     0
  0
ACAD_PROXY_OBJECT
  5
30
102
{ACAD_REACTORS
330
2A
102
}
330
2A
100
AcDbZombieObject
 90
      499
 91
      501
 93
      436
310
42CCD915DA5C99599C985B595059028333333333333E3BF0000000000000FB0107901411070040501600405405064090741402480A0340
1001
ACAD
1000
AcDbSavedByObjectVersion
1070
     0
  0
ACAD_PROXY_OBJECT
  5
32
102
{ACAD_REACTORS
330
2A
102
}
330
2A
100
AcDbZombieObject
 90
      499
 91
      501
 93
      388
310
4150985CDA58D07406404333333333333E3BF0000000000000FB0107A41107004050150841D405064090741402480A0350
1001
ACAD
1000
AcDbSavedByObjectVersion
1070
     0
  0
ACAD_PROXY_OBJECT
  5
36
102
{ACAD_REACTORS
330
2A
102
}
330
2A
100
AcDbZombieObject
 90
      499
 91
      501
 93
      428
310
42109C9A59DA1D195B90C409028333333333333E3BF0000000000000FB010790141107004050150841D405064090741402480A029950
1001
ACAD
1000
AcDbSavedByObjectVersion
1070
     0
  0
ACAD_PROXY_OBJECT
  5
3A
102
{ACAD_REACTORS
330
2A
102
}
330
2A
100
AcDbZombieObject
 90
      499
 91
      501
 93
      452
310
42D0DBDB1BDC90DA185B99D95104090240C333333333333E3BF0000000000000FB0108901411070040501508421405064090741402480A0350
1001
ACAD
1000
AcDbSavedByObjectVersion
1070
     0
  0
ACAD_PROXY_OBJECT
  5
34
102
{ACAD_REACTORS
330
2A
102
}
330
2A
100
AcDbZombieObject
 90
      499
 91
      501
 93
      500
310
4290DBDB98D95C1D1D585B10940D028333333333333E3BF0000000000000FB0107902409070040501000000000000111010841D405064090740C02480A0340
1001
ACAD
1000
AcDbSavedByObjectVersion
1070
     0
  0
ACAD_PROXY_OBJECT
  5
35
102
{ACAD_REACTORS
330
2A
102
}
330
2A
100
AcDbZombieObject
 90
      499
 91
      501
 93
      412
310
40D11A5B50B409028333333333333E3BF0000000000000FB010790141107004050150841D405064090741402480A02677FFFFFD0
1001
ACAD
1000
AcDbSavedByObjectVersion
1070
     0
  0
ACAD_PROXY_OBJECT
  5
39
102
{ACAD_REACTORS
330
2A
102
}
330
2A
100
AcDbZombieObject
 90
      499
 91
      501
 93
      444
310
42D19858D95C185D1D195C9B90F409028333333333333E3BF0000000000000FB010790141107004050150841D405064090741402480A0350
1001
ACAD
1000
AcDbSavedByObjectVersion
1070
     0
  0
ACAD_PROXY_OBJECT
  5
2B
102
{ACAD_REACTORS
330
2A
102
}
330
2A
100
AcDbZombieObject
 90
      499
 91
      501
 93
      388
310
41119B185D240901404333333333333E3BF0000000000000F9010740A41107004050150841D405064090741402480A1B50
1001
ACAD
1000
AcDbSavedByObjectVersion
1070
     0
  0
ACAD_PROXY_OBJECT
  5
2C
102
{ACAD_REACTORS
330
2A
102
}
330
2A
100
AcDbZombieObject
 90
      499
 91
      501
 93
      476
310
43519B185D15DA5D1A115919D95CD0140901404333333333333E3BF0000000000000F9010740901411070040501600405405064090741402480A1B50
1001
ACAD
1000
AcDbSavedByObjectVersion
1070
     0
  0
ACAD_PROXY_OBJECT
  5
2D
102
{ACAD_REACTORS
330
2A
102
}
330
2A
100
AcDbZombieObject
 90
      499
 91
      501
 93
      412
310
41D1DBDD5C985D5910240902404333333333333E3BF0000000000000F9010740A411070040501641D405064090741402480A1B50
1001
ACAD
1000
AcDbSavedByObjectVersion
1070
     0
  0
ACAD_PROXY_OBJECT
  5
2E
102
{ACAD_REACTORS
330
2A
102
}
330
2A
100
AcDbZombieObject
 90
      499
 91
      501
 93
      500
310
4411DBDD5C985D5915DA5D1A115919D95CD0340902404333333333333E3BF0000000000000F9010740901411070040501600405405064090741402480A1B50
1001
ACAD
1000
AcDbSavedByObjectVersion
1070
     0
  0
ACAD_PROXY_OBJECT
  5
38
102
{ACAD_REACTORS
330
2A
102
}
330
2A
100
AcDbZombieObject
 90
      499
 91
      501
 93
      444
310
42D31A5B995C185D1D195C9B90E409028333333333333E3BF0000000000000FB010790141107004050750841D405064090741402483A0350
1001
ACAD
1000
AcDbSavedByObjectVersion
1070
     0
  0
ACAD_PROXY_OBJECT
  5
33
102
{ACAD_REACTORS
330
2A
102
}
330
2A
100
AcDbZombieObject
 90
      499
 91
      501
 93
      420
310
425499585B1A5CDD1A58D08409028333333333333E3BF0000000000000FB01079019070040501508421405064090741402480A1B40
1001
ACAD
1000
AcDbSavedByObjectVersion
1070
     0
  0
ACAD_PROXY_OBJECT
  5
37
102
{ACAD_REACTORS
330
2A
102
}
330
2A
100
AcDbZombieObject
 90
      499
 91
      501
 93
      412
310
41D51A1A58DAD95B90D409028333333333333E3BF0000000000000FB010790141107004050150C41D405064090741402480A0350
1001
ACAD
1000
AcDbSavedByObjectVersion
1070
     0
  0
DICTIONARYVAR
  5
1D2
102
{ACAD_REACTORS
330
1CD
102
}
330
1CD
100
DictionaryVariables
280
     0
  1
1:1
  0
DICTIONARYVAR
  5
1D1
102
{ACAD_REACTORS
330
1CD
102
}
330
1CD
100
DictionaryVariables
280
     0
  1
80.000000
  0
DICTIONARYVAR
  5
1D0
102
{ACAD_REACTORS
330
1CD
102
}
330
1CD
100
DictionaryVariables
280
     0
  1
5.000000
  0
ENDSEC
  0
EOF
