  0
SECTION
  2
HEADER
  9
$ACADVER
  1
AC1014
  9
$ACADMAINTVER
 70
     9
  9
$DWGCODEPAGE
  3
ANSI_932
  9
$INSBASE
 10
0.0
 20
0.0
 30
0.0
  9
$EXTMIN
 10
0.0
 20
0.0
 30
0.0
  9
$EXTMAX
 10
210.0
 20
297.0
 30
0.0
  9
$LIMMIN
 10
0.0
 20
0.0
  9
$LIMMAX
 10
210.0
 20
297.0
  9
$ORTHOMODE
 70
     0
  9
$REGENMODE
 70
     1
  9
$FILLMODE
 70
     1
  9
$QTEXTMODE
 70
     0
  9
$MIRRTEXT
 70
     1
  9
$DRAGMODE
 70
     2
  9
$LTSCALE
 40
1.0
  9
$OSMODE
 70
    37
  9
$ATTMODE
 70
     1
  9
$TEXTSIZE
 40
2.5
  9
$TRACEWID
 40
1.0
  9
$TEXTSTYLE
  7
STANDARD
  9
$CLAYER
  8
0
  9
$CELTYPE
  6
BYLAYER
  9
$CECOLOR
 62
   256
  9
$CELTSCALE
 40
1.0
  9
$DELOBJ
 70
     1
  9
$DISPSILH
 70
     0
  9
$DIMSCALE
 40
1.0
  9
$DIMASZ
 40
2.5
  9
$DIMEXO
 40
0.625
  9
$DIMDLI
 40
3.75
  9
$DIMRND
 40
0.0
  9
$DIMDLE
 40
0.0
  9
$DIMEXE
 40
1.25
  9
$DIMTP
 40
0.0
  9
$DIMTM
 40
0.0
  9
$DIMTXT
 40
2.5
  9
$DIMCEN
 40
2.5
  9
$DIMTSZ
 40
0.0
  9
$DIMTOL
 70
     0
  9
$DIMLIM
 70
     0
  9
$DIMTIH
 70
     0
  9
$DIMTOH
 70
     0
  9
$DIMSE1
 70
     0
  9
$DIMSE2
 70
     0
  9
$DIMTAD
 70
     1
  9
$DIMZIN
 70
     8
  9
$DIMBLK
  1

  9
$DIMASO
 70
     1
  9
$DIMSHO
 70
     1
  9
$DIMPOST
  1

  9
$DIMAPOST
  1

  9
$DIMALT
 70
     0
  9
$DIMALTD
 70
     3
  9
$DIMALTF
 40
0.0393700787
  9
$DIMLFAC
 40
1.0
  9
$DIMTOFL
 70
     1
  9
$DIMTVP
 40
0.0
  9
$DIMTIX
 70
     0
  9
$DIMSOXD
 70
     0
  9
$DIMSAH
 70
     0
  9
$DIMBLK1
  1

  9
$DIMBLK2
  1

  9
$DIMSTYLE
  2
ISO-25
  9
$DIMCLRD
 70
     0
  9
$DIMCLRE
 70
     0
  9
$DIMCLRT
 70
     0
  9
$DIMTFAC
 40
1.0
  9
$DIMGAP
 40
0.625
  9
$DIMJUST
 70
     0
  9
$DIMSD1
 70
     0
  9
$DIMSD2
 70
     0
  9
$DIMTOLJ
 70
     0
  9
$DIMTZIN
 70
     8
  9
$DIMALTZ
 70
     0
  9
$DIMALTTZ
 70
     0
  9
$DIMFIT
 70
     3
  9
$DIMUPT
 70
     0
  9
$DIMUNIT
 70
     2
  9
$DIMDEC
 70
     2
  9
$DIMTDEC
 70
     2
  9
$DIMALTU
 70
     2
  9
$DIMALTTD
 70
     3
  9
$DIMTXSTY
  7
STANDARD
  9
$DIMAUNIT
 70
     0
  9
$LUNITS
 70
     2
  9
$LUPREC
 70
     4
  9
$SKETCHINC
 40
1.0
  9
$FILLETRAD
 40
10.0
  9
$AUNITS
 70
     0
  9
$AUPREC
 70
     0
  9
$MENU
  1
.
  9
$ELEVATION
 40
0.0
  9
$PELEVATION
 40
0.0
  9
$THICKNESS
 40
0.0
  9
$LIMCHECK
 70
     0
  9
$CHAMFERA
 40
10.0
  9
$CHAMFERB
 40
10.0
  9
$CHAMFERC
 40
20.0
  9
$CHAMFERD
 40
0.0
  9
$SKPOLY
 70
     0
  9
$TDCREATE
 40
2457536.50340963
  9
$TDUPDATE
 40
2457536.503409641
  9
$TDINDWG
 40
0.0000000116
  9
$TDUSRTIMER
 40
0.0000000116
  9
$USRTIMER
 70
     1
  9
$ANGBASE
 50
0.0
  9
$ANGDIR
 70
     0
  9
$PDMODE
 70
     0
  9
$PDSIZE
 40
0.0
  9
$PLINEWID
 40
0.0
  9
$COORDS
 70
     1
  9
$SPLFRAME
 70
     0
  9
$SPLINETYPE
 70
     6
  9
$SPLINESEGS
 70
     8
  9
$ATTDIA
 70
     0
  9
$ATTREQ
 70
     1
  9
$HANDLING
 70
     1
  9
$HANDSEED
  5
19B
  9
$SURFTAB1
 70
     6
  9
$SURFTAB2
 70
     6
  9
$SURFTYPE
 70
     6
  9
$SURFU
 70
     6
  9
$SURFV
 70
     6
  9
$UCSNAME
  2

  9
$UCSORG
 10
0.0
 20
0.0
 30
0.0
  9
$UCSXDIR
 10
1.0
 20
0.0
 30
0.0
  9
$UCSYDIR
 10
0.0
 20
1.0
 30
0.0
  9
$PUCSNAME
  2

  9
$PUCSORG
 10
0.0
 20
0.0
 30
0.0
  9
$PUCSXDIR
 10
1.0
 20
0.0
 30
0.0
  9
$PUCSYDIR
 10
0.0
 20
1.0
 30
0.0
  9
$USERI1
 70
     0
  9
$USERI2
 70
     0
  9
$USERI3
 70
     0
  9
$USERI4
 70
     0
  9
$USERI5
 70
     0
  9
$USERR1
 40
0.0
  9
$USERR2
 40
0.0
  9
$USERR3
 40
0.0
  9
$USERR4
 40
0.0
  9
$USERR5
 40
0.0
  9
$WORLDVIEW
 70
     1
  9
$SHADEDGE
 70
     3
  9
$SHADEDIF
 70
    70
  9
$TILEMODE
 70
     1
  9
$MAXACTVP
 70
    64
  9
$PINSBASE
 10
0.0
 20
0.0
 30
0.0
  9
$PLIMCHECK
 70
     0
  9
$PEXTMIN
 10
0.0
 20
0.0
 30
0.0
  9
$PEXTMAX
 10
210.0
 20
297.0
 30
0.0
  9
$PLIMMIN
 10
0.0
 20
0.0
  9
$PLIMMAX
 10
210.0
 20
297.0
  9
$UNITMODE
 70
     0
  9
$VISRETAIN
 70
     1
  9
$PLINEGEN
 70
     0
  9
$PSLTSCALE
 70
     1
  9
$TREEDEPTH
 70
  3020
  9
$PICKSTYLE
 70
     1
  9
$CMLSTYLE
  2
STANDARD
  9
$CMLJUST
 70
     0
  9
$CMLSCALE
 40
20.0
  9
$PROXYGRAPHICS
 70
     1
  9
$MEASUREMENT
 70
     1
  0
ENDSEC
  0
SECTION
  2
CLASSES
  0
CLASS
  1
ACDBDICTIONARYWDFLT
  2
AcDbDictionaryWithDefault
  3
ObjectDBX Classes
 90
        0
280
     0
281
     0
  0
CLASS
  1
VISUALSTYLE
  2
AcDbVisualStyle
  3
ObjectDBX Classes
 90
     4095
280
     0
281
     0
  0
CLASS
  1
SCALE
  2
AcDbScale
  3
ObjectDBX Classes
 90
     1153
280
     0
281
     0
  0
CLASS
  1
DICTIONARYVAR
  2
AcDbDictionaryVar
  3
ObjectDBX Classes
 90
        0
280
     0
281
     0
  0
CLASS
  1
XRECORD
  2
AcDbXrecord
  3
AutoCAD 2000
 90
        0
280
     0
281
     0
  0
CLASS
  1
LWPOLYLINE
  2
AcDbPolyline
  3
AutoCAD 2000
 90
        0
280
     0
281
     1
  0
CLASS
  1
HATCH
  2
AcDbHatch
  3
AutoCAD 2000
 90
        0
280
     0
281
     1
  0
CLASS
  1
ACDBPLACEHOLDER
  2
AcDbPlaceHolder
  3
ObjectDBX Classes
 90
        0
280
     0
281
     0
  0
CLASS
  1
LAYOUT
  2
AcDbLayout
  3
ObjectDBX Classes
 90
        0
280
     0
281
     0
  0
ENDSEC
  0
SECTION
  2
TABLES
  0
TABLE
  2
VPORT
  5
8
330
0
100
AcDbSymbolTable
 70
     1
  0
VPORT
  5
29
330
8
100
AcDbSymbolTableRecord
100
AcDbViewportTableRecord
  2
*ACTIVE
 70
     0
 10
0.0
 20
0.0
 11
1.0
 21
1.0
 12
344.1869158879
 22
148.5
 13
0.0
 23
0.0
 14
10.0
 24
10.0
 15
10.0
 25
10.0
 16
0.0
 26
0.0
 36
1.0
 17
0.0
 27
0.0
 37
0.0
 40
297.0
 41
1.9729729729
 42
50.0
 43
0.0
 44
0.0
 50
0.0
 51
0.0
 71
     0
 72
   100
 73
     1
 74
     3
 75
     0
 76
     0
 77
     0
 78
     0
  0
ENDTAB
  0
TABLE
  2
LTYPE
  5
5
330
0
100
AcDbSymbolTable
 70
     2
  0
LTYPE
  5
14
330
5
100
AcDbSymbolTableRecord
100
AcDbLinetypeTableRecord
  2
BYBLOCK
 70
     0
  3

 72
    65
 73
     0
 40
0.0
  0
LTYPE
  5
15
330
5
100
AcDbSymbolTableRecord
100
AcDbLinetypeTableRecord
  2
BYLAYER
 70
     0
  3

 72
    65
 73
     0
 40
0.0
  0
LTYPE
  5
16
330
5
100
AcDbSymbolTableRecord
100
AcDbLinetypeTableRecord
  2
CONTINUOUS
 70
     0
  3
Solid line
 72
    65
 73
     0
 40
0.0
  0
LTYPE
  5
F6
330
5
100
AcDbSymbolTableRecord
100
AcDbLinetypeTableRecord
  2
CENTER2
 70
     0
  3
Center (.5x) ___ _ ___ _ ___ _ ___ _ ___ _ ___
 72
    65
 73
     4
 40
28.575
 49
19.05
 74
     4
 75
     0
340
0
 46
0.0
 50
0.0
 44
0.0
 45
0.0
 49
-3.175
 74
     4
 75
     0
340
0
 46
0.0
 50
0.0
 44
0.0
 45
0.0
 49
3.175
 74
     4
 75
     0
340
0
 46
0.0
 50
0.0
 44
0.0
 45
0.0
 49
-3.175
 74
     4
 75
     0
340
0
 46
0.0
 50
0.0
 44
0.0
 45
0.0
  0
ENDTAB
  0
TABLE
  2
LAYER
  5
2
330
0
100
AcDbSymbolTable
 70
     5
  0
LAYER
  5
10
330
2
100
AcDbSymbolTableRecord
100
AcDbLayerTableRecord
  2
0
 70
     0
 62
     7
  6
CONTINUOUS
  0
LAYER
  5
5F
330
2
100
AcDbSymbolTableRecord
100
AcDbLayerTableRecord
  2
DEFAULT
 70
     0
 62
     7
  6
CONTINUOUS
  0
LAYER
  5
62
330
2
100
AcDbSymbolTableRecord
100
AcDbLayerTableRecord
  2
DV1_デフォルト
 70
     0
 62
     7
  6
CONTINUOUS
  0
LAYER
  5
F5
330
2
100
AcDbSymbolTableRecord
100
AcDbLayerTableRecord
  2
DV1_ﾃﾞﾌｫﾙﾄ
 70
     0
 62
     7
  6
CONTINUOUS
  0
LAYER
  5
113
330
2
100
AcDbSymbolTableRecord
100
AcDbLayerTableRecord
  2
DV1_AUTO_-_HIDE
 70
     1
 62
    -7
  6
CONTINUOUS
  0
ENDTAB
  0
TABLE
  2
STYLE
  5
3
330
0
100
AcDbSymbolTable
 70
     3
  0
STYLE
  5
11
330
3
100
AcDbSymbolTableRecord
100
AcDbTextStyleTableRecord
  2
STANDARD
 70
     0
 40
0.0
 41
1.0
 50
0.0
 71
     0
 42
2.5
  3
txt
  4

  0
STYLE
  5
5D
330
3
100
AcDbSymbolTableRecord
100
AcDbTextStyleTableRecord
  2
SEACAD_SEANSI_TTF
 70
     0
 40
0.0
 41
1.0
 50
0.0
 71
     0
 42
0.2
  3
seansi.ttf
  4

  0
STYLE
  5
115
330
3
100
AcDbSymbolTableRecord
100
AcDbTextStyleTableRecord
  2
SEACAD_SEMECA1_TTF
 70
     0
 40
0.0
 41
1.0
 50
0.0
 71
     0
 42
0.2
  3
semeca1.ttf
  4

  0
ENDTAB
  0
TABLE
  2
VIEW
  5
6
330
0
100
AcDbSymbolTable
 70
     0
  0
ENDTAB
  0
TABLE
  2
UCS
  5
7
330
0
100
AcDbSymbolTable
 70
     0
  0
ENDTAB
  0
TABLE
  2
APPID
  5
9
330
0
100
AcDbSymbolTable
 70
     1
  0
APPID
  5
12
330
9
100
AcDbSymbolTableRecord
100
AcDbRegAppTableRecord
  2
ACAD
 70
     0
  0
ENDTAB
  0
TABLE
  2
DIMSTYLE
  5
A
330
0
100
AcDbSymbolTable
 70
     1
  0
DIMSTYLE
105
27
330
A
100
AcDbSymbolTableRecord
100
AcDbDimStyleTableRecord
  2
ISO-25
 70
     0
  3

  4

  5

  6

  7

 40
1.0
 41
2.5
 42
0.625
 43
3.75
 44
1.25
 45
0.0
 46
0.0
 47
0.0
 48
0.0
140
2.5
141
2.5
142
0.0
143
0.0393700787
144
1.0
145
0.0
146
1.0
147
0.625
 71
     0
 72
     0
 73
     0
 74
     0
 75
     0
 76
     0
 77
     1
 78
     8
170
     0
171
     3
172
     1
173
     0
174
     0
175
     0
176
     0
177
     0
178
     0
270
     2
271
     2
272
     2
273
     2
274
     3
340
11
275
     0
280
     0
281
     0
282
     0
283
     0
284
     8
285
     0
286
     0
287
     3
288
     0
  0
ENDTAB
  0
TABLE
  2
BLOCK_RECORD
  5
1
330
0
100
AcDbSymbolTable
 70
    10
  0
BLOCK_RECORD
  5
1F
330
1
100
AcDbSymbolTableRecord
100
AcDbBlockTableRecord
  2
*MODEL_SPACE
  0
BLOCK_RECORD
  5
1B
330
1
100
AcDbSymbolTableRecord
100
AcDbBlockTableRecord
  2
*PAPER_SPACE
  0
BLOCK_RECORD
  5
60
330
1
100
AcDbSymbolTableRecord
100
AcDbBlockTableRecord
  2
SE
  0
BLOCK_RECORD
  5
121
330
1
100
AcDbSymbolTableRecord
100
AcDbBlockTableRecord
  2
GDIMGGROUP
  0
BLOCK_RECORD
  5
12C
330
1
100
AcDbSymbolTableRecord
100
AcDbBlockTableRecord
  2
GDIMGGROUP1
  0
BLOCK_RECORD
  5
138
330
1
100
AcDbSymbolTableRecord
100
AcDbBlockTableRecord
  2
GDIMGGROUP2
  0
BLOCK_RECORD
  5
143
330
1
100
AcDbSymbolTableRecord
100
AcDbBlockTableRecord
  2
GDIMGGROUP3
  0
BLOCK_RECORD
  5
14D
330
1
100
AcDbSymbolTableRecord
100
AcDbBlockTableRecord
  2
GDIMGGROUP4
  0
BLOCK_RECORD
  5
157
330
1
100
AcDbSymbolTableRecord
100
AcDbBlockTableRecord
  2
GDIMGGROUP5
  0
BLOCK_RECORD
  5
161
330
1
100
AcDbSymbolTableRecord
100
AcDbBlockTableRecord
  2
GDIMGGROUP6
  0
BLOCK_RECORD
  5
16B
330
1
100
AcDbSymbolTableRecord
100
AcDbBlockTableRecord
  2
GDIMGGROUP7
  0
ENDTAB
  0
ENDSEC
  0
SECTION
  2
BLOCKS
  0
BLOCK
  5
20
330
1F
100
AcDbEntity
  8
0
100
AcDbBlockBegin
  2
*MODEL_SPACE
 70
     0
 10
0.0
 20
0.0
 30
0.0
  3
*MODEL_SPACE
  1

  0
ENDBLK
  5
21
330
1F
100
AcDbEntity
  8
0
100
AcDbBlockEnd
  0
BLOCK
  5
1C
330
1B
100
AcDbEntity
 67
     1
  8
0
100
AcDbBlockBegin
  2
*PAPER_SPACE
 70
     0
 10
0.0
 20
0.0
 30
0.0
  3
*PAPER_SPACE
  1

  0
ENDBLK
  5
1D
330
1B
100
AcDbEntity
 67
     1
  8
0
100
AcDbBlockEnd
  0
BLOCK
  5
11F
330
60
100
AcDbEntity
  8
0
100
AcDbBlockBegin
  2
SE
 70
     0
 10
0.0
 20
0.0
 30
0.0
  3
SE
  1

  0
SPLINE
  5
63
330
60
100
AcDbEntity
  8
DV1_デフォルト
  6
CONTINUOUS
 62
     7
100
AcDbSpline
210
0.0
220
0.0
230
1.0
 70
     8
 71
     3
 72
    26
 73
    22
 74
     0
 42
0.0000000044715783
 43
0.0000000001
 40
0.0
 40
0.0
 40
0.0
 40
0.0
 40
0.0119220311810124
 40
0.0535860390929399
 40
0.0945426031895722
 40
0.1382922111839121
 40
0.1897711097241955
 40
0.2564399700985516
 40
0.3228452730604654
 40
0.3917298710055316
 40
0.4574894782981773
 40
0.5220747655302901
 40
0.5865698563254107
 40
0.6516473660976352
 40
0.7184502813344368
 40
0.7893276784571381
 40
0.856306733718283
 40
0.9032454965429008
 40
0.9477355680938929
 40
0.991403066603388
 40
1.0
 40
1.0
 40
1.0
 40
1.0
 10
118.3346270470251
 20
161.1581656519531
 30
0.0
 10
118.3364484936822
 20
161.1494723600277
 30
0.0
 10
118.3461026943453
 20
161.1113185247536
 30
0.0
 10
118.3809241855797
 20
161.0459281151952
 30
0.0
 10
118.4399629041524
 20
160.9778118830388
 30
0.0
 10
118.5128279467947
 20
160.9226889154632
 30
0.0
 10
118.6046471326246
 20
160.8753498630754
 30
0.0
 10
118.7196690869594
 20
160.8359133737522
 30
0.0
 10
118.8627609194786
 20
160.8039501382304
 30
0.0
 10
119.0218988553917
 20
160.7821662591456
 30
0.0
 10
119.1910856211025
 20
160.7706038689348
 30
0.0
 10
119.3610831310656
 20
160.7690585817785
 30
0.0
 10
119.5281435875447
 20
160.7771947724299
 30
0.0
 10
119.6881543451983
 20
160.7950332654418
 30
0.0
 10
119.8384945979571
 20
160.8232876686224
 30
0.0
 10
119.9718005416765
 20
160.8627194488746
 30
0.0
 10
120.078322592548
 20
160.9121237864819
 30
0.0
 10
120.1636890960642
 20
160.9743575813492
 30
0.0
 10
120.2271005277949
 20
161.0469393265076
 30
0.0
 10
120.2620769324492
 20
161.114671396023
 30
0.0
 10
120.2711614908966
 20
161.1520741819053
 30
0.0
 10
120.2724628744277
 20
161.1583189715874
 30
0.0
  0
ELLIPSE
  5
64
330
60
100
AcDbEntity
  8
DV1_デフォルト
  6
CONTINUOUS
 62
     7
100
AcDbEllipse
 10
119.303365193
 20
187.7689474385
 30
0.0
 11
-0.9802147254593367
 21
1.222005339103809E-14
 31
0.0
210
0.0
220
0.0
230
1.0
 40
0.9659258263
 41
0.0
 42
0.0901130890591166
  0
ELLIPSE
  5
65
330
60
100
AcDbEntity
  8
DV1_デフォルト
  6
CONTINUOUS
 62
     7
100
AcDbEllipse
 10
119.303365193
 20
187.7689474385
 30
0.0
 11
-0.9802147254593367
 21
1.222005339103809E-14
 31
0.0
210
0.0
220
0.0
230
1.0
 40
0.9659258263
 41
3.030520366051639
 42
6.283185307179586
  0
ELLIPSE
  5
66
330
60
100
AcDbEntity
  8
DV1_デフォルト
  6
CONTINUOUS
 62
     7
100
AcDbEllipse
 10
119.303365193
 20
187.7104163596
 30
0.0
 11
0.9999999999999991
 21
1.379924475270542E-14
 31
0.0
210
0.0
220
0.0
230
1.0
 40
0.9659258263
 41
0.0000000000000151
 42
0.3326111055549932
  0
ELLIPSE
  5
67
330
60
100
AcDbEntity
  8
DV1_デフォルト
  6
CONTINUOUS
 62
     7
100
AcDbEllipse
 10
119.303365193
 20
187.7104163596
 30
0.0
 11
0.9999999999999991
 21
1.379924475270542E-14
 31
0.0
210
0.0
220
0.0
230
1.0
 40
0.9659258263
 41
2.808981548034773
 42
6.283185307179572
  0
LINE
  5
68
330
60
100
AcDbEntity
  8
DV1_デフォルト
  6
CONTINUOUS
 62
     7
100
AcDbLine
 10
119.103365193
 20
187.6068887416
 30
0.0
 11
119.303365193
 21
187.6068887416
 31
0.0
  0
LINE
  5
69
330
60
100
AcDbEntity
  8
DV1_デフォルト
  6
CONTINUOUS
 62
     7
100
AcDbLine
 10
119.503365193
 20
187.2602703864
 30
0.0
 11
119.503365193
 21
187.6466407169
 31
0.0
  0
LINE
  5
6A
330
60
100
AcDbEntity
  8
DV1_デフォルト
  6
CONTINUOUS
 62
     7
100
AcDbLine
 10
119.103365193
 20
187.2602703864
 30
0.0
 11
119.503365193
 21
187.2602703864
 31
0.0
  0
LINE
  5
6B
330
60
100
AcDbEntity
  8
DV1_デフォルト
  6
CONTINUOUS
 62
     7
100
AcDbLine
 10
119.103365193
 20
188.4193813779
 30
0.0
 11
119.503365193
 21
188.4193813779
 31
0.0
  0
LINE
  5
6C
330
60
100
AcDbEntity
  8
DV1_デフォルト
  6
CONTINUOUS
 62
     7
100
AcDbLine
 10
119.103365193
 20
187.2602703864
 30
0.0
 11
119.103365193
 21
187.6466407169
 31
0.0
  0
LINE
  5
6D
330
60
100
AcDbEntity
  8
DV1_デフォルト
  6
CONTINUOUS
 62
     7
100
AcDbLine
 10
119.503365193
 20
188.0330110474
 30
0.0
 11
119.503365193
 21
188.4193813779
 31
0.0
  0
LINE
  5
6E
330
60
100
AcDbEntity
  8
DV1_デフォルト
  6
CONTINUOUS
 62
     7
100
AcDbLine
 10
119.503365193
 20
187.8777196203
 30
0.0
 11
119.503365193
 21
188.0330110474
 31
0.0
  0
LINE
  5
6F
330
60
100
AcDbEntity
  8
DV1_デフォルト
  6
CONTINUOUS
 62
     7
100
AcDbLine
 10
119.503365193
 20
187.8777196203
 30
0.0
 11
119.503365193
 21
187.6466407169
 31
0.0
  0
LINE
  5
70
330
60
100
AcDbEntity
  8
DV1_デフォルト
  6
CONTINUOUS
 62
     7
100
AcDbLine
 10
119.103365193
 20
188.0330110474
 30
0.0
 11
119.103365193
 21
188.4193813779
 31
0.0
  0
LINE
  5
71
330
60
100
AcDbEntity
  8
DV1_デフォルト
  6
CONTINUOUS
 62
     7
100
AcDbLine
 10
119.103365193
 20
187.8777196203
 30
0.0
 11
119.103365193
 21
187.6466407169
 31
0.0
  0
LINE
  5
72
330
60
100
AcDbEntity
  8
DV1_デフォルト
  6
CONTINUOUS
 62
     7
100
AcDbLine
 10
119.303365193
 20
187.6068887416
 30
0.0
 11
119.503365193
 21
187.6068887416
 31
0.0
  0
LINE
  5
73
330
60
100
AcDbEntity
  8
DV1_デフォルト
  6
CONTINUOUS
 62
     7
100
AcDbLine
 10
119.103365193
 20
187.4913492898
 30
0.0
 11
119.303365193
 21
187.6068887416
 31
0.0
  0
LINE
  5
74
330
60
100
AcDbEntity
  8
DV1_デフォルト
  6
CONTINUOUS
 62
     7
100
AcDbLine
 10
119.303365193
 20
187.6068887416
 30
0.0
 11
119.103365193
 21
187.8777196203
 31
0.0
  0
LINE
  5
75
330
60
100
AcDbEntity
  8
DV1_デフォルト
  6
CONTINUOUS
 62
     7
100
AcDbLine
 10
119.103365193
 20
187.8777196203
 30
0.0
 11
119.303365193
 21
187.8000739068
 31
0.0
  0
LINE
  5
76
330
60
100
AcDbEntity
  8
DV1_デフォルト
  6
CONTINUOUS
 62
     7
100
AcDbLine
 10
119.303365193
 20
187.4913492898
 30
0.0
 11
119.303365193
 21
187.6068887416
 31
0.0
  0
LINE
  5
77
330
60
100
AcDbEntity
  8
DV1_デフォルト
  6
CONTINUOUS
 62
     7
100
AcDbLine
 10
119.303365193
 20
187.6068887416
 30
0.0
 11
119.503365193
 21
187.4913492898
 31
0.0
  0
LINE
  5
78
330
60
100
AcDbEntity
  8
DV1_デフォルト
  6
CONTINUOUS
 62
     7
100
AcDbLine
 10
119.503365193
 20
187.8777196203
 30
0.0
 11
119.903365193
 21
188.0330110474
 31
0.0
  0
LINE
  5
79
330
60
100
AcDbEntity
  8
DV1_デフォルト
  6
CONTINUOUS
 62
     7
100
AcDbLine
 10
119.903365193
 20
187.6466407169
 30
0.0
 11
119.903365193
 21
188.0330110474
 31
0.0
  0
LINE
  5
7A
330
60
100
AcDbEntity
  8
DV1_デフォルト
  6
CONTINUOUS
 62
     7
100
AcDbLine
 10
119.903365193
 20
188.0330110474
 30
0.0
 11
119.503365193
 21
188.0330110474
 31
0.0
  0
LINE
  5
7B
330
60
100
AcDbEntity
  8
DV1_デフォルト
  6
CONTINUOUS
 62
     7
100
AcDbLine
 10
119.103365193
 20
187.6466407169
 30
0.0
 11
118.703365193
 21
187.6466407169
 31
0.0
  0
LINE
  5
7C
330
60
100
AcDbEntity
  8
DV1_デフォルト
  6
CONTINUOUS
 62
     7
100
AcDbLine
 10
119.903365193
 20
187.6466407169
 30
0.0
 11
119.503365193
 21
187.6466407169
 31
0.0
  0
LINE
  5
7D
330
60
100
AcDbEntity
  8
DV1_デフォルト
  6
CONTINUOUS
 62
     7
100
AcDbLine
 10
119.503365193
 20
187.8777196203
 30
0.0
 11
119.103365193
 21
187.8777196203
 31
0.0
  0
LINE
  5
7E
330
60
100
AcDbEntity
  8
DV1_デフォルト
  6
CONTINUOUS
 62
     7
100
AcDbLine
 10
119.103365193
 20
187.8777196203
 30
0.0
 11
119.103365193
 21
188.0330110474
 31
0.0
  0
LINE
  5
7F
330
60
100
AcDbEntity
  8
DV1_デフォルト
  6
CONTINUOUS
 62
     7
100
AcDbLine
 10
119.303365193
 20
187.8000739068
 30
0.0
 11
119.503365193
 21
187.8777196203
 31
0.0
  0
LINE
  5
80
330
60
100
AcDbEntity
  8
DV1_デフォルト
  6
CONTINUOUS
 62
     7
100
AcDbLine
 10
119.503365193
 20
187.8777196203
 30
0.0
 11
119.303365193
 21
187.6068887416
 31
0.0
  0
LINE
  5
81
330
60
100
AcDbEntity
  8
DV1_デフォルト
  6
CONTINUOUS
 62
     7
100
AcDbLine
 10
119.303365193
 20
187.6068887416
 30
0.0
 11
119.303365193
 21
187.8000739068
 31
0.0
  0
LINE
  5
82
330
60
100
AcDbEntity
  8
DV1_デフォルト
  6
CONTINUOUS
 62
     7
100
AcDbLine
 10
119.103365193
 20
188.0330110474
 30
0.0
 11
118.703365193
 21
188.0330110474
 31
0.0
  0
LINE
  5
83
330
60
100
AcDbEntity
  8
DV1_デフォルト
  6
CONTINUOUS
 62
     7
100
AcDbLine
 10
118.703365193
 20
188.0330110474
 30
0.0
 11
119.103365193
 21
187.8777196203
 31
0.0
  0
LINE
  5
84
330
60
100
AcDbEntity
  8
DV1_デフォルト
  6
CONTINUOUS
 62
     7
100
AcDbLine
 10
118.703365193
 20
187.6466407169
 30
0.0
 11
118.703365193
 21
188.0330110474
 31
0.0
  0
LINE
  5
85
330
60
100
AcDbEntity
  8
DV1_デフォルト
  6
CONTINUOUS
 62
     7
100
AcDbLine
 10
119.503365193
 20
187.4913492898
 30
0.0
 11
119.103365193
 21
187.4913492898
 31
0.0
  0
LINE
  5
86
330
60
100
AcDbEntity
  8
DV1_デフォルト
  6
CONTINUOUS
 62
     7
100
AcDbLine
 10
120.2485582019
 20
188.0258028657
 30
0.0
 11
120.2298572987
 21
188.0780939359
 31
0.0
  0
LINE
  5
87
330
60
100
AcDbEntity
  8
DV1_デフォルト
  6
CONTINUOUS
 62
     7
100
AcDbLine
 10
118.3768730872
 20
188.0780939359
 30
0.0
 11
118.358172184
 21
188.0258028657
 31
0.0
  0
ELLIPSE
  5
88
330
60
100
AcDbEntity
  8
DV1_デフォルト
  6
CONTINUOUS
 62
     7
100
AcDbEllipse
 10
113.303365193
 20
200.7349927533
 30
0.0
 11
0.9999999999999974
 21
-7.854305510903482E-17
 31
0.0
210
0.0
220
0.0
230
1.0
 40
0.5
 41
0.0000000000000002
 42
0.0505331075401613
  0
ELLIPSE
  5
89
330
60
100
AcDbEntity
  8
DV1_デフォルト
  6
CONTINUOUS
 62
     7
100
AcDbEllipse
 10
113.303365193
 20
200.7349927533
 30
0.0
 11
0.9999999999999974
 21
-7.854305510903482E-17
 31
0.0
210
0.0
220
0.0
230
1.0
 40
0.5
 41
3.091059546049632
 42
6.283185307179586
  0
LINE
  5
8A
330
60
100
AcDbEntity
  8
DV1_デフォルト
  6
CONTINUOUS
 62
     7
100
AcDbLine
 10
114.3020886672
 20
200.760248555
 30
0.0
 11
114.2743524914
 21
201.0344505989
 31
0.0
  0
LINE
  5
8B
330
60
100
AcDbEntity
  8
DV1_デフォルト
  6
CONTINUOUS
 62
     7
100
AcDbLine
 10
112.3323778945
 20
201.0344505989
 30
0.0
 11
112.3046417188
 21
200.760248555
 31
0.0
  0
SPLINE
  5
8C
330
60
100
AcDbEntity
  8
DV1_デフォルト
  6
CONTINUOUS
 62
     7
100
AcDbSpline
210
0.0
220
0.0
230
1.0
 70
     8
 71
     3
 72
    25
 73
    21
 74
     0
 42
0.0000000041127689
 43
0.0000000001
 40
0.0
 40
0.0
 40
0.0
 40
0.0
 40
0.0109106991728694
 40
0.0641532936342372
 40
0.1173027454010456
 40
0.1733862204593935
 40
0.2340307800296964
 40
0.2983023658581025
 40
0.3633556842460676
 40
0.4277985480799808
 40
0.491719066903148
 40
0.5554827500824641
 40
0.6194623244427568
 40
0.6840251338359663
 40
0.7497009357029192
 40
0.8170082417733362
 40
0.8766217346601217
 40
0.931714574522709
 40
0.983752160941482
 40
1.0
 40
1.0
 40
1.0
 40
1.0
 10
114.2721007727096
 20
201.0283756971947
 30
0.0
 10
114.2723590373681
 20
201.0369018221585
 30
0.0
 10
114.2735117790879
 20
201.0799049710806
 30
0.0
 10
114.2432596945277
 20
201.162941275925
 30
0.0
 10
114.1849151828407
 20
201.2611642957829
 30
0.0
 10
114.0979870738459
 20
201.349557734947
 30
0.0
 10
113.9851698758214
 20
201.4271359117831
 30
0.0
 10
113.8461194827188
 20
201.491980748626
 30
0.0
 10
113.6863926275301
 20
201.5407878204918
 30
0.0
 10
113.5136757428712
 20
201.5716538684215
 30
0.0
 10
113.3347331181894
 20
201.5840814975288
 30
0.0
 10
113.1551192862074
 20
201.5780761317512
 30
0.0
 10
112.9801214072235
 20
201.5537312921975
 30
0.0
 10
112.814694444864
 20
201.5111007739202
 30
0.0
 10
112.6632401771937
 20
201.4497968766881
 30
0.0
 10
112.536629989309
 20
201.3723641146842
 30
0.0
 10
112.4383086558097
 20
201.2816356473915
 30
0.0
 10
112.3732660896918
 20
201.1836191717586
 30
0.0
 10
112.3380105301576
 20
201.098362038619
 30
0.0
 10
112.3369600823341
 20
201.052674714726
 30
0.0
 10
112.3367353595259
 20
201.0399664885188
 30
0.0
  0
ELLIPSE
  5
8D
330
60
100
AcDbEntity
  8
DV1_デフォルト
  6
CONTINUOUS
 62
     7
100
AcDbEllipse
 10
93.003365193
 20
200.1609413118
 30
0.0
 11
0.6767949192431135
 21
-1.393094534845409E-14
 31
0.0
210
0.0
220
0.0
230
1.0
 40
0.5
 41
0.8235886074441748
 42
2.858484943449623
  0
LINE
  5
8E
330
60
100
AcDbEntity
  8
DV1_デフォルト
  6
CONTINUOUS
 62
     7
100
AcDbLine
 10
93.4633102992
 20
200.4091860811
 30
0.0
 11
93.618819594
 21
200.3674752073
 31
0.0
  0
LINE
  5
8F
330
60
100
AcDbEntity
  8
DV1_デフォルト
  6
CONTINUOUS
 62
     7
100
AcDbLine
 10
92.491344124
 20
200.1286036146
 30
0.0
 11
93.4633102992
 21
200.4091860811
 31
0.0
  0
LINE
  5
90
330
60
100
AcDbEntity
  8
DV1_デフォルト
  6
CONTINUOUS
 62
     7
100
AcDbLine
 10
93.6370246272
 20
200.2283929804
 30
0.0
 11
92.8789302413
 21
200.0095499815
 31
0.0
  0
LINE
  5
91
330
60
100
AcDbEntity
  8
DV1_デフォルト
  6
CONTINUOUS
 62
     7
100
AcDbLine
 10
70.803365193
 20
161.3587478422
 30
0.0
 11
70.803365193
 21
202.9587478422
 31
0.0
  0
LINE
  5
92
330
60
100
AcDbEntity
  8
DV1_デフォルト
  6
CONTINUOUS
 62
     7
100
AcDbLine
 10
71.003365193
 20
161.1587478422
 30
0.0
 11
71.003365193
 21
203.1587478422
 31
0.0
  0
LINE
  5
93
330
60
100
AcDbEntity
  8
DV1_デフォルト
  6
CONTINUOUS
 62
     7
100
AcDbLine
 10
104.103365193
 20
161.1587478422
 30
0.0
 11
104.103365193
 21
203.1587478422
 31
0.0
  0
LINE
  5
94
330
60
100
AcDbEntity
  8
DV1_デフォルト
  6
CONTINUOUS
 62
     7
100
AcDbLine
 10
104.303365193
 20
161.3587478422
 30
0.0
 11
104.303365193
 21
202.9587478422
 31
0.0
  0
SPLINE
  5
95
330
60
100
AcDbEntity
  8
DV1_デフォルト
  6
CONTINUOUS
 62
     7
100
AcDbSpline
210
0.0
220
0.0
230
1.0
 70
    11
 71
     3
 72
    62
 73
    58
 74
     0
 42
0.0000000030438992
 43
0.0000000001
 40
0.0
 40
0.0
 40
0.0
 40
0.0
 40
0.0536855661724948
 40
0.0536855661724948
 40
0.0536855661724948
 40
0.1073699502750968
 40
0.1073699502750968
 40
0.1073699502750968
 40
0.1610720596201965
 40
0.1610720596201965
 40
0.1610720596201965
 40
0.2147862520023398
 40
0.2147862520023398
 40
0.2147862520023398
 40
0.2684813447679319
 40
0.2684813447679319
 40
0.2684813447679319
 40
0.3221559834915909
 40
0.3221559834915909
 40
0.3221559834915909
 40
0.3758407070709048
 40
0.3758407070709048
 40
0.3758407070709048
 40
0.4295503275373442
 40
0.4295503275373442
 40
0.4295503275373442
 40
0.4832608194130052
 40
0.4832608194130052
 40
0.4832608194130052
 40
0.5369467610016874
 40
0.5369467610016874
 40
0.5369467610016874
 40
0.5906210623779531
 40
0.5906210623779531
 40
0.5906210623779531
 40
0.6443147908931508
 40
0.6443147908931508
 40
0.6443147908931508
 40
0.698028696402228
 40
0.698028696402228
 40
0.698028696402228
 40
0.7517320419850356
 40
0.7517320419850356
 40
0.7517320419850356
 40
0.8054105880964876
 40
0.8054105880964876
 40
0.8054105880964876
 40
0.8590887864089657
 40
0.8590887864089657
 40
0.8590887864089657
 40
0.912791617802075
 40
0.912791617802075
 40
0.912791617802075
 40
0.96650565557335
 40
0.96650565557335
 40
0.96650565557335
 40
1.0
 40
1.0
 40
1.0
 40
1.0
 10
93.00336519295763
 20
163.6441116196889
 30
0.0
 10
92.92783836297342
 20
163.6441116196889
 30
0.0
 10
92.85127006467735
 20
163.6502573602257
 30
0.0
 10
92.78000180065001
 20
163.6620961947071
 30
0.0
 10
92.70873442858463
 20
163.6739348810189
 30
0.0
 10
92.64080154483713
 20
163.691797759735
 30
0.0
 10
92.58182174033186
 20
163.7143525131369
 30
0.0
 10
92.52282278064149
 20
163.7369145917662
 30
0.0
 10
92.47115539629976
 20
163.7648019121421
 30
0.0
 10
92.4310949230713
 20
163.7958791171338
 30
0.0
 10
92.39102597744314
 20
163.8269628946515
 30
0.0
 10
92.36146388637977
 20
163.8621033766244
 30
0.0
 10
92.34486061731255
 20
163.8985114704135
 30
0.0
 10
92.32826320256332
 20
163.9349067266969
 30
0.0
 10
92.32415798049881
 20
163.9735764825873
 30
0.0
 10
92.33288577169348
 20
164.0113344762374
 30
0.0
 10
92.34161036737387
 20
164.0490786455182
 30
0.0
 10
92.36339847192338
 20
164.0869505304479
 30
0.0
 10
92.39644418833088
 20
164.1217230519789
 30
0.0
 10
92.42949623055584
 20
164.1565022298831
 30
0.0
 10
92.47472073732787
 20
164.1891333168821
 30
0.0
 10
92.52837614238521
 20
164.2167547142393
 30
0.0
 10
92.58205572034701
 20
164.2443885556251
 30
0.0
 10
92.64565481933676
 20
164.2677620613281
 30
0.0
 10
92.71391009959304
 20
164.2847769376308
 30
0.0
 10
92.7821658466558
 20
164.3017919303003
 30
0.0
 10
92.85696183421095
 20
164.312910871278
 30
0.0
 10
92.93210018634018
 20
164.3171205732248
 30
0.0
 10
93.00720488108985
 20
164.3213283894829
 30
0.0
 10
93.08472336114998
 20
164.3187474512099
 30
0.0
 10
93.15823393764889
 20
164.3096136532443
 30
0.0
 10
93.23172955956915
 20
164.3004817134073
 30
0.0
 10
93.30324527525296
 20
164.2845520028858
 30
0.0
 10
93.36686579976369
 20
164.2632678067399
 30
0.0
 10
93.43050914395837
 20
164.241975976287
 30
0.0
 10
93.48800672774382
 20
164.2147464605061
 30
0.0
 10
93.53460318498058
 20
164.1840037424654
 30
0.0
 10
93.58121646173164
 20
164.1532499274956
 30
0.0
 10
93.61820632982554
 20
164.1181396896268
 30
0.0
 10
93.64250700969329
 20
164.0817249049391
 30
0.0
 10
93.66680283316123
 20
164.0453173976098
 30
0.0
 10
93.6790842747548
 20
164.0066061711079
 30
0.0
 10
93.67833170435922
 20
163.9688534320474
 30
0.0
 10
93.67757947142047
 20
163.931117621528
 30
0.0
 10
93.66378452946141
 20
163.893298582417
 30
0.0
 10
93.63809106276224
 20
163.8584673019095
 30
0.0
 10
93.61239752813181
 20
163.8236359293111
 30
0.0
 10
93.57409794167296
 20
163.7908266474917
 30
0.0
 10
93.52636220625331
 20
163.7626042012473
 30
0.0
 10
93.47860501097716
 20
163.7343690674505
 30
0.0
 10
93.42008608683292
 20
163.7099380476573
 30
0.0
 10
93.35564677976879
 20
163.691161497758
 30
0.0
 10
93.29119488085507
 20
163.6723812788017
 30
0.0
 10
93.21904125477501
 20
163.6587324382164
 30
0.0
 10
93.14516287283313
 20
163.6512277230787
 30
0.0
 10
93.09869244801922
 20
163.6465071635402
 30
0.0
 10
93.0508972516996
 20
163.6441116196889
 30
0.0
 10
93.00336519295763
 20
163.6441116196889
 30
0.0
  0
SPLINE
  5
96
330
60
100
AcDbEntity
  8
DV1_デフォルト
  6
CONTINUOUS
 62
     7
100
AcDbSpline
210
0.0
220
0.0
230
1.0
 70
    11
 71
     3
 72
    62
 73
    58
 74
     0
 42
0.0000000030439197
 43
0.0000000001
 40
0.0
 40
0.0
 40
0.0
 40
0.0
 40
0.0536855661724949
 40
0.0536855661724949
 40
0.0536855661724949
 40
0.1073699502750974
 40
0.1073699502750974
 40
0.1073699502750974
 40
0.161072059620197
 40
0.161072059620197
 40
0.161072059620197
 40
0.2147862520023407
 40
0.2147862520023407
 40
0.2147862520023407
 40
0.2684813447679324
 40
0.2684813447679324
 40
0.2684813447679324
 40
0.322155983491591
 40
0.322155983491591
 40
0.322155983491591
 40
0.3758407070709054
 40
0.3758407070709054
 40
0.3758407070709054
 40
0.4295503275373445
 40
0.4295503275373445
 40
0.4295503275373445
 40
0.4832608194130054
 40
0.4832608194130054
 40
0.4832608194130054
 40
0.5369467610016874
 40
0.5369467610016874
 40
0.5369467610016874
 40
0.5906210623779529
 40
0.5906210623779529
 40
0.5906210623779529
 40
0.6443147908931504
 40
0.6443147908931504
 40
0.6443147908931504
 40
0.6980286964022281
 40
0.6980286964022281
 40
0.6980286964022281
 40
0.7517320419850353
 40
0.7517320419850353
 40
0.7517320419850353
 40
0.8054105880964877
 40
0.8054105880964877
 40
0.8054105880964877
 40
0.8590887864089658
 40
0.8590887864089658
 40
0.8590887864089658
 40
0.9127916178020751
 40
0.9127916178020751
 40
0.9127916178020751
 40
0.9665056555733502
 40
0.9665056555733502
 40
0.9665056555733502
 40
1.0
 40
1.0
 40
1.0
 40
1.0
 10
93.00336519295763
 20
199.9983840646161
 30
0.0
 10
92.92783836297342
 20
199.9983840646161
 30
0.0
 10
92.85127006467737
 20
200.0052747307786
 30
0.0
 10
92.78000180065001
 20
200.0184271236535
 30
0.0
 10
92.70873442858465
 20
200.031579351919
 30
0.0
 10
92.64080154483715
 20
200.0513501573171
 30
0.0
 10
92.58182174033188
 20
200.0759561857935
 30
0.0
 10
92.5228227806415
 20
200.1005702057007
 30
0.0
 10
92.47115539629978
 20
200.1306932920437
 30
0.0
 10
92.4310949230713
 20
200.1636616283811
 30
0.0
 10
92.39102597744314
 20
200.1966369372003
 30
0.0
 10
92.36146388637978
 20
200.233361406417
 30
0.0
 10
92.34486061731256
 20
200.2706712884451
 30
0.0
 10
92.32826320256333
 20
200.3079680149968
 30
0.0
 10
92.32415798049882
 20
200.3468752609811
 30
0.0
 10
92.33288577169348
 20
200.3841506026114
 30
0.0
 10
92.34161036737387
 20
200.4214122965863
 30
0.0
 10
92.36339847192339
 20
200.4580726452645
 30
0.0
 10
92.39644418833088
 20
200.4911908005942
 30
0.0
 10
92.42949623055586
 20
200.524315295608
 30
0.0
 10
92.47472073732787
 20
200.5548161455429
 30
0.0
 10
92.52837614238523
 20
200.5803349669384
 30
0.0
 10
92.58205572034703
 20
200.6058652851072
 30
0.0
 10
92.64565481933676
 20
200.6271215364605
 30
0.0
 10
92.71391009959304
 20
200.6425062087668
 30
0.0
 10
92.7821658466558
 20
200.6578909862908
 30
0.0
 10
92.85696183421096
 20
200.6678347428766
 30
0.0
 10
92.9321001863402
 20
200.6716025679321
 30
0.0
 10
93.00720488108985
 20
200.6753687052328
 30
0.0
 10
93.08472336115
 20
200.6730700542039
 30
0.0
 10
93.15823393764889
 20
200.664875693068
 30
0.0
 10
93.23172955956916
 20
200.6566829989469
 30
0.0
 10
93.30324527525296
 20
200.6423678080016
 30
0.0
 10
93.3668657997637
 20
200.6229917203431
 30
0.0
 10
93.43050914395837
 20
200.6036086827859
 30
0.0
 10
93.48800672774382
 20
200.5786192978738
 30
0.0
 10
93.53460318498058
 20
200.5499186410694
 30
0.0
 10
93.58121646173164
 20
200.5212076244406
 30
0.0
 10
93.61820632982555
 20
200.4879821960609
 30
0.0
 10
93.64250700969329
 20
200.4528485030038
 30
0.0
 10
93.66680283316123
 20
200.4177218312836
 30
0.0
 10
93.67908427475481
 20
200.3797131615092
 30
0.0
 10
93.67833170435924
 20
200.3419185266272
 30
0.0
 10
93.67757947142047
 20
200.3041408390726
 30
0.0
 10
93.66378452946142
 20
200.2655353495841
 30
0.0
 10
93.63809106276226
 20
200.2293589020531
 30
0.0
 10
93.61239752813181
 20
200.1931823588746
 30
0.0
 10
93.57409794167296
 20
200.1584427468709
 30
0.0
 10
93.52636220625332
 20
200.1281607434996
 30
0.0
 10
93.47860501097716
 20
200.0978651266908
 30
0.0
 10
93.42008608683294
 20
200.0712037041982
 30
0.0
 10
93.35564677976879
 20
200.0505541212496
 30
0.0
 10
93.29119488085507
 20
200.0299005032415
 30
0.0
 10
93.21904125477502
 20
200.0146989388095
 30
0.0
 10
93.14516287283314
 20
200.0063297686795
 30
0.0
 10
93.09869244801922
 20
200.0010654561559
 30
0.0
 10
93.05089725169961
 20
199.9983840646161
 30
0.0
 10
93.00336519295763
 20
199.9983840646161
 30
0.0
  0
ARC
  5
97
330
60
100
AcDbEntity
  8
DV1_デフォルト
  6
CONTINUOUS
 62
     7
100
AcDbCircle
 10
93.0033377115
 20
224.1467273853
 30
0.0
 40
20.99965059056317
100
AcDbArc
 50
268.0899863997
 51
271.9103222284
  0
ARC
  5
98
330
60
100
AcDbEntity
  8
DV1_デフォルト
  6
CONTINUOUS
 62
     7
100
AcDbCircle
 10
98.8033651929
 20
223.6779897576
 30
0.0
 40
20.53868363119814
100
AcDbArc
 50
267.5068246332
 51
272.4931753442
  0
LINE
  5
99
330
60
100
AcDbEntity
  8
DV1_デフォルト
  6
CONTINUOUS
 62
     7
100
AcDbLine
 10
71.003365193
 20
203.1587478422
 30
0.0
 11
70.803365193
 21
202.9587478422
 31
0.0
  0
LINE
  5
9A
330
60
100
AcDbEntity
  8
DV1_デフォルト
  6
CONTINUOUS
 62
     7
100
AcDbLine
 10
70.803365193
 20
161.3587478422
 30
0.0
 11
71.003365193
 21
161.1587478422
 31
0.0
  0
LINE
  5
9B
330
60
100
AcDbEntity
  8
DV1_デフォルト
  6
CONTINUOUS
 62
     7
100
AcDbLine
 10
104.103365193
 20
161.1587478422
 30
0.0
 11
104.303365193
 21
161.3587478422
 31
0.0
  0
LINE
  5
9C
330
60
100
AcDbEntity
  8
DV1_デフォルト
  6
CONTINUOUS
 62
     7
100
AcDbLine
 10
104.303365193
 20
202.9587478422
 30
0.0
 11
104.103365193
 21
203.1587478422
 31
0.0
  0
LINE
  5
9D
330
60
100
AcDbEntity
  8
DV1_デフォルト
  6
CONTINUOUS
 62
     7
100
AcDbLine
 10
71.003365193
 20
161.1587478422
 30
0.0
 11
103.603365193
 21
161.1587478422
 31
0.0
  0
LINE
  5
9E
330
60
100
AcDbEntity
  8
DV1_デフォルト
  6
CONTINUOUS
 62
     7
100
AcDbLine
 10
93.703366013
 20
203.1587478422
 30
0.0
 11
71.003365193
 21
203.1587478422
 31
0.0
  0
LINE
  5
9F
330
60
100
AcDbEntity
  8
DV1_デフォルト
  6
CONTINUOUS
 62
     7
100
AcDbLine
 10
97.9099692834
 20
203.1587478422
 30
0.0
 11
93.7022212287
 21
203.1587478422
 31
0.0
  0
LINE
  5
A0
330
60
100
AcDbEntity
  8
DV1_デフォルト
  6
CONTINUOUS
 62
     7
100
AcDbLine
 10
104.103365193
 20
203.1587478422
 30
0.0
 11
99.6967098841
 21
203.1587478422
 31
0.0
  0
ELLIPSE
  5
A1
330
60
100
AcDbEntity
  8
DV1_デフォルト
  6
CONTINUOUS
 62
     7
100
AcDbEllipse
 10
113.303365193
 20
163.582502931
 30
0.0
 11
0.9999999999999974
 21
-7.854305510903482E-17
 31
0.0
210
0.0
220
0.0
230
1.0
 40
0.5
 41
0.0000000000000002
 42
3.192125761129954
  0
ELLIPSE
  5
A2
330
60
100
AcDbEntity
  8
DV1_デフォルト
  6
CONTINUOUS
 62
     7
100
AcDbEllipse
 10
113.303365193
 20
163.582502931
 30
0.0
 11
0.9999999999999974
 21
-7.854305510903482E-17
 31
0.0
210
0.0
220
0.0
230
1.0
 40
0.5
 41
6.232652199639425
 42
6.283185307179586
  0
LINE
  5
A3
330
60
100
AcDbEntity
  8
DV1_デフォルト
  6
CONTINUOUS
 62
     7
100
AcDbLine
 10
112.3046417188
 20
163.5572471293
 30
0.0
 11
112.3323778945
 21
163.2830450854
 31
0.0
  0
LINE
  5
A4
330
60
100
AcDbEntity
  8
DV1_デフォルト
  6
CONTINUOUS
 62
     7
100
AcDbLine
 10
114.2743524914
 20
163.2830450854
 30
0.0
 11
114.3020886672
 21
163.5572471293
 31
0.0
  0
SPLINE
  5
A5
330
60
100
AcDbEntity
  8
DV1_デフォルト
  6
CONTINUOUS
 62
     7
100
AcDbSpline
210
0.0
220
0.0
230
1.0
 70
     8
 71
     3
 72
    14
 73
    10
 74
     0
 42
0.0000000130495449
 43
0.0000000001
 40
0.0
 40
0.0
 40
0.0
 40
0.0
 40
0.106418417620169
 40
0.2575610901104217
 40
0.413130164015269
 40
0.5796700315139324
 40
0.7586162877997966
 40
0.9446152288197014
 40
1.0
 40
1.0
 40
1.0
 40
1.0
 10
112.33564369155
 20
163.2832179983321
 30
0.0
 10
112.3384468825764
 20
163.2553427051116
 30
0.0
 10
112.3448829604007
 20
163.1981336541566
 30
0.0
 10
112.3886874792785
 20
163.1057871212195
 30
0.0
 10
112.4574470811598
 20
163.0160128036659
 30
0.0
 10
112.5521112710588
 20
162.9348927945343
 30
0.0
 10
112.6701980971838
 20
162.8649079505094
 30
0.0
 10
112.7818117637626
 20
162.8198566983573
 30
0.0
 10
112.844515514606
 20
162.8008652692105
 30
0.0
 10
112.8614004566183
 20
162.7958272821697
 30
0.0
  0
SPLINE
  5
A6
330
60
100
AcDbEntity
  8
DV1_デフォルト
  6
CONTINUOUS
 62
     7
100
AcDbSpline
210
0.0
220
0.0
230
1.0
 70
     8
 71
     3
 72
    19
 73
    15
 74
     0
 42
0.000000006044669
 43
0.0000000001
 40
0.0
 40
0.0
 40
0.0
 40
0.0
 40
0.0499845851830562
 40
0.143732181408748
 40
0.2368385508625992
 40
0.3297601366865326
 40
0.4229919211497586
 40
0.5170374319847469
 40
0.6126037323758059
 40
0.7103908756154956
 40
0.7983900066383895
 40
0.8800528282169303
 40
0.9567425180529244
 40
1.0
 40
1.0
 40
1.0
 40
1.0
 10
112.8614004566183
 20
162.7958272821697
 30
0.0
 10
112.8918700894391
 20
162.7875584727142
 30
0.0
 10
112.9666716742241
 20
162.7677032249593
 30
0.0
 10
113.1108039601682
 20
162.7439995607778
 30
0.0
 10
113.2817901703994
 20
162.7335266719738
 30
0.0
 10
113.4546331415073
 20
162.7399028740906
 30
0.0
 10
113.6227411433209
 20
162.7632711939359
 30
0.0
 10
113.7822204805661
 20
162.803526089861
 30
0.0
 10
113.9289844996969
 20
162.8610081598584
 30
0.0
 10
114.053626930968
 20
162.9335896223593
 30
0.0
 10
114.1522906114134
 20
163.0187399002236
 30
0.0
 10
114.2213422205285
 20
163.111250092822
 30
0.0
 10
114.2622994409285
 20
163.2004671152292
 30
0.0
 10
114.2679181051757
 20
163.2528762953086
 30
0.0
 10
114.2700816757056
 20
163.275117163717
 30
0.0
  0
ARC
  5
A7
330
60
100
AcDbEntity
  8
DV1_デフォルト
  6
CONTINUOUS
 62
     7
100
AcDbCircle
 10
131.803365193
 20
182.1587478422
 30
0.0
 40
0.6767949192431123
100
AcDbArc
 50
227.1881512616
 51
232.731090571
  0
LINE
  5
A8
330
60
100
AcDbEntity
  8
DV1_デフォルト
  6
CONTINUOUS
 62
     7
100
AcDbLine
 10
131.1434200867
 20
182.0086684651
 30
0.0
 11
132.2633102992
 21
182.6552373807
 31
0.0
  0
LINE
  5
A9
330
60
100
AcDbEntity
  8
DV1_デフォルト
  6
CONTINUOUS
 62
     7
100
AcDbLine
 10
132.4633102992
 20
182.3088272192
 30
0.0
 11
131.3434200867
 21
181.6622583036
 31
0.0
  0
LINE
  5
AA
330
60
100
AcDbEntity
  8
DV1_デフォルト
  6
CONTINUOUS
 62
     7
100
AcDbLine
 10
138.803365193
 20
170.1587478422
 30
0.0
 11
138.803365193
 21
194.1587478422
 31
0.0
  0
LINE
  5
AB
330
60
100
AcDbEntity
  8
DV1_デフォルト
  6
CONTINUOUS
 62
     7
100
AcDbLine
 10
138.103365193
 20
169.4587478422
 30
0.0
 11
138.103365193
 21
194.8587478422
 31
0.0
  0
LINE
  5
AC
330
60
100
AcDbEntity
  8
DV1_デフォルト
  6
CONTINUOUS
 62
     7
100
AcDbLine
 10
136.553365193
 20
169.4587478422
 30
0.0
 11
136.553365193
 21
194.8587478422
 31
0.0
  0
LINE
  5
AD
330
60
100
AcDbEntity
  8
DV1_デフォルト
  6
CONTINUOUS
 62
     7
100
AcDbLine
 10
135.853365193
 20
170.1587478422
 30
0.0
 11
135.853365193
 21
194.1587478422
 31
0.0
  0
LINE
  5
AE
330
60
100
AcDbEntity
  8
DV1_デフォルト
  6
CONTINUOUS
 62
     7
100
AcDbLine
 10
134.803365193
 20
167.3587478422
 30
0.0
 11
134.803365193
 21
196.9587478422
 31
0.0
  0
LINE
  5
AF
330
60
100
AcDbEntity
  8
DV1_デフォルト
  6
CONTINUOUS
 62
     7
100
AcDbLine
 10
134.603365193
 20
164.9087478422
 30
0.0
 11
134.603365193
 21
199.4087478422
 31
0.0
  0
LINE
  5
B0
330
60
100
AcDbEntity
  8
DV1_デフォルト
  6
CONTINUOUS
 62
     7
100
AcDbLine
 10
134.103365193
 20
164.4087478422
 30
0.0
 11
134.103365193
 21
199.9087478422
 31
0.0
  0
CIRCLE
  5
B1
330
60
100
AcDbEntity
  8
DV1_デフォルト
  6
CONTINUOUS
 62
     7
100
AcDbCircle
 10
131.803365193
 20
182.1587478422
 30
0.0
 40
0.6750000000000003
  0
ARC
  5
B2
330
60
100
AcDbEntity
  8
DV1_デフォルト
  6
CONTINUOUS
 62
     7
100
AcDbCircle
 10
131.803391673
 20
146.671972599
 30
0.0
 40
17.74961570813759
100
AcDbArc
 50
87.8208376126
 51
92.179509182
  0
ARC
  5
B3
330
60
100
AcDbEntity
  8
DV1_デフォルト
  6
CONTINUOUS
 62
     7
100
AcDbCircle
 10
131.803391673
 20
217.6455230853
 30
0.0
 40
17.74961570813759
100
AcDbArc
 50
267.820490818
 51
272.1791623874
  0
LINE
  5
B4
330
60
100
AcDbEntity
  8
DV1_デフォルト
  6
CONTINUOUS
 62
     7
100
AcDbLine
 10
138.103365193
 20
169.4587478422
 30
0.0
 11
138.803365193
 21
170.1587478422
 31
0.0
  0
LINE
  5
B5
330
60
100
AcDbEntity
  8
DV1_デフォルト
  6
CONTINUOUS
 62
     7
100
AcDbLine
 10
138.803365193
 20
194.1587478422
 30
0.0
 11
138.103365193
 21
194.8587478422
 31
0.0
  0
LINE
  5
B6
330
60
100
AcDbEntity
  8
DV1_デフォルト
  6
CONTINUOUS
 62
     7
100
AcDbLine
 10
136.553365193
 20
169.4587478422
 30
0.0
 11
138.103365193
 21
169.4587478422
 31
0.0
  0
LINE
  5
B7
330
60
100
AcDbEntity
  8
DV1_デフォルト
  6
CONTINUOUS
 62
     7
100
AcDbLine
 10
138.103365193
 20
194.8587478422
 30
0.0
 11
136.553365193
 21
194.8587478422
 31
0.0
  0
LINE
  5
B8
330
60
100
AcDbEntity
  8
DV1_デフォルト
  6
CONTINUOUS
 62
     7
100
AcDbLine
 10
136.553365193
 20
194.8587478422
 30
0.0
 11
135.853365193
 21
194.1587478422
 31
0.0
  0
LINE
  5
B9
330
60
100
AcDbEntity
  8
DV1_デフォルト
  6
CONTINUOUS
 62
     7
100
AcDbLine
 10
135.853365193
 20
170.1587478422
 30
0.0
 11
136.553365193
 21
169.4587478422
 31
0.0
  0
LINE
  5
BA
330
60
100
AcDbEntity
  8
DV1_デフォルト
  6
CONTINUOUS
 62
     7
100
AcDbLine
 10
134.803365193
 20
170.1587478422
 30
0.0
 11
135.853365193
 21
170.1587478422
 31
0.0
  0
LINE
  5
BB
330
60
100
AcDbEntity
  8
DV1_デフォルト
  6
CONTINUOUS
 62
     7
100
AcDbLine
 10
135.853365193
 20
194.1587478422
 30
0.0
 11
134.803365193
 21
194.1587478422
 31
0.0
  0
LINE
  5
BC
330
60
100
AcDbEntity
  8
DV1_デフォルト
  6
CONTINUOUS
 62
     7
100
AcDbLine
 10
134.603365193
 20
167.1587478422
 30
0.0
 11
134.803365193
 21
167.3587478422
 31
0.0
  0
LINE
  5
BD
330
60
100
AcDbEntity
  8
DV1_デフォルト
  6
CONTINUOUS
 62
     7
100
AcDbLine
 10
134.803365193
 20
196.9587478422
 30
0.0
 11
134.603365193
 21
197.1587478422
 31
0.0
  0
LINE
  5
BE
330
60
100
AcDbEntity
  8
DV1_デフォルト
  6
CONTINUOUS
 62
     7
100
AcDbLine
 10
134.103365193
 20
164.4087478422
 30
0.0
 11
134.603365193
 21
164.9087478422
 31
0.0
  0
LINE
  5
BF
330
60
100
AcDbEntity
  8
DV1_デフォルト
  6
CONTINUOUS
 62
     7
100
AcDbLine
 10
134.603365193
 20
199.4087478422
 30
0.0
 11
134.103365193
 21
199.9087478422
 31
0.0
  0
LINE
  5
C0
330
60
100
AcDbEntity
  8
DV1_デフォルト
  6
CONTINUOUS
 62
     7
100
AcDbLine
 10
132.4697219761
 20
164.4087478422
 30
0.0
 11
134.103365193
 21
164.4087478422
 31
0.0
  0
LINE
  5
C1
330
60
100
AcDbEntity
  8
DV1_デフォルト
  6
CONTINUOUS
 62
     7
100
AcDbLine
 10
130.103365193
 20
164.4087478422
 30
0.0
 11
131.1294397213
 21
164.4087478422
 31
0.0
  0
LINE
  5
C2
330
60
100
AcDbEntity
  8
DV1_デフォルト
  6
CONTINUOUS
 62
     7
100
AcDbLine
 10
131.1294397213
 20
199.9087478422
 30
0.0
 11
130.103365193
 21
199.9087478422
 31
0.0
  0
LINE
  5
C3
330
60
100
AcDbEntity
  8
DV1_デフォルト
  6
CONTINUOUS
 62
     7
100
AcDbLine
 10
134.103365193
 20
199.9087478422
 30
0.0
 11
132.4697219761
 21
199.9087478422
 31
0.0
  0
ARC
  5
C4
330
60
100
AcDbEntity
  8
DV1_デフォルト
  6
CONTINUOUS
 62
     7
100
AcDbCircle
 10
131.803365193
 20
182.1587478422
 30
0.0
 40
0.8500000000000002
100
AcDbArc
 50
75.0
 51
15.0
  0
LINE
  5
C5
330
60
100
AcDbEntity
  8
DV1_デフォルト
  6
CONTINUOUS
 62
     7
100
AcDbLine
 10
104.803365193
 20
161.3587478422
 30
0.0
 11
104.803365193
 21
202.9587478422
 31
0.0
  0
LINE
  5
C6
330
60
100
AcDbEntity
  8
DV1_デフォルト
  6
CONTINUOUS
 62
     7
100
AcDbLine
 10
116.803365193
 20
161.3587478422
 30
0.0
 11
116.803365193
 21
202.9587478422
 31
0.0
  0
LINE
  5
C7
330
60
100
AcDbEntity
  8
DV1_デフォルト
  6
CONTINUOUS
 62
     7
100
AcDbLine
 10
105.003365193
 20
203.1587478422
 30
0.0
 11
105.003365193
 21
182.4087478422
 31
0.0
  0
LINE
  5
C8
330
60
100
AcDbEntity
  8
DV1_デフォルト
  6
CONTINUOUS
 62
     7
100
AcDbLine
 10
105.003365193
 20
181.9087478422
 30
0.0
 11
105.003365193
 21
161.1587478422
 31
0.0
  0
LINE
  5
C9
330
60
100
AcDbEntity
  8
DV1_デフォルト
  6
CONTINUOUS
 62
     7
100
AcDbLine
 10
105.003365193
 20
182.4087478422
 30
0.0
 11
104.8521168689
 21
182.2587478422
 31
0.0
  0
SPLINE
  5
CA
330
60
100
AcDbEntity
  8
DV1_デフォルト
  6
CONTINUOUS
 62
     7
100
AcDbSpline
210
0.0
220
0.0
230
1.0
 70
     8
 71
     3
 72
    11
 73
     7
 74
     0
 42
0.0000000499996797
 43
0.0000000001
 40
0.0
 40
0.0
 40
0.0
 40
0.0
 40
0.125422400968688
 40
0.125422400968688
 40
0.125422400968688
 40
1.0
 40
1.0
 40
1.0
 40
1.0
 10
104.8521168688827
 20
182.2587478421525
 30
0.0
 10
104.8520767625697
 20
182.2503861765382
 30
0.0
 10
104.8520416863571
 20
182.2420244852842
 30
0.0
 10
104.8520116404353
 20
182.2336627774679
 30
0.0
 10
104.8518021358858
 20
182.1753581648811
 30
0.0
 10
104.8518372151211
 20
182.117052160473
 30
0.0
 10
104.8521168688827
 20
182.0587478421525
 30
0.0
  0
LINE
  5
CB
330
60
100
AcDbEntity
  8
DV1_デフォルト
  6
CONTINUOUS
 62
     7
100
AcDbLine
 10
104.8521168689
 20
182.0587478422
 30
0.0
 11
105.003365193
 21
181.9087478422
 31
0.0
  0
LINE
  5
CC
330
60
100
AcDbEntity
  8
DV1_デフォルト
  6
CONTINUOUS
 62
     7
100
AcDbLine
 10
116.603365193
 20
203.1587478422
 30
0.0
 11
116.603365193
 21
182.4087478422
 31
0.0
  0
LINE
  5
CD
330
60
100
AcDbEntity
  8
DV1_デフォルト
  6
CONTINUOUS
 62
     7
100
AcDbLine
 10
116.603365193
 20
181.9087478422
 30
0.0
 11
116.603365193
 21
161.1587478422
 31
0.0
  0
SPLINE
  5
CE
330
60
100
AcDbEntity
  8
DV1_デフォルト
  6
CONTINUOUS
 62
     7
100
AcDbSpline
210
0.0
220
0.0
230
1.0
 70
     8
 71
     3
 72
    11
 73
     7
 74
     0
 42
0.0000000499996797
 43
0.0000000001
 40
0.0
 40
0.0
 40
0.0
 40
0.0
 40
0.874577599031315
 40
0.874577599031315
 40
0.874577599031315
 40
1.0
 40
1.0
 40
1.0
 40
1.0
 10
116.7546135170325
 20
182.0587478421525
 30
0.0
 10
116.7548931707942
 20
182.117052160473
 30
0.0
 10
116.7549282500294
 20
182.1753581648811
 30
0.0
 10
116.7547187454799
 20
182.2336627774679
 30
0.0
 10
116.7546886995582
 20
182.2420244852842
 30
0.0
 10
116.7546536233455
 20
182.2503861765382
 30
0.0
 10
116.7546135170325
 20
182.2587478421525
 30
0.0
  0
LINE
  5
CF
330
60
100
AcDbEntity
  8
DV1_デフォルト
  6
CONTINUOUS
 62
     7
100
AcDbLine
 10
116.603365193
 20
181.9087478422
 30
0.0
 11
116.754613517
 21
182.0587478422
 31
0.0
  0
LINE
  5
D0
330
60
100
AcDbEntity
  8
DV1_デフォルト
  6
CONTINUOUS
 62
     7
100
AcDbLine
 10
116.754613517
 20
182.2587478422
 30
0.0
 11
116.603365193
 21
182.4087478422
 31
0.0
  0
LINE
  5
D1
330
60
100
AcDbEntity
  8
DV1_デフォルト
  6
CONTINUOUS
 62
     7
100
AcDbLine
 10
104.8521168689
 20
182.2587478422
 30
0.0
 11
116.754613517
 21
182.2587478422
 31
0.0
  0
LINE
  5
D2
330
60
100
AcDbEntity
  8
DV1_デフォルト
  6
CONTINUOUS
 62
     7
100
AcDbLine
 10
104.8521168689
 20
182.0587478422
 30
0.0
 11
116.754613517
 21
182.0587478422
 31
0.0
  0
LINE
  5
D3
330
60
100
AcDbEntity
  8
DV1_デフォルト
  6
CONTINUOUS
 62
     7
100
AcDbLine
 10
105.003365193
 20
181.9087478422
 30
0.0
 11
116.603365193
 21
181.9087478422
 31
0.0
  0
LINE
  5
D4
330
60
100
AcDbEntity
  8
DV1_デフォルト
  6
CONTINUOUS
 62
     7
100
AcDbLine
 10
105.003365193
 20
182.4087478422
 30
0.0
 11
116.603365193
 21
182.4087478422
 31
0.0
  0
LINE
  5
D5
330
60
100
AcDbEntity
  8
DV1_デフォルト
  6
CONTINUOUS
 62
     7
100
AcDbLine
 10
104.303365193
 20
162.0087478422
 30
0.0
 11
104.803365193
 21
162.0087478422
 31
0.0
  0
LINE
  5
D6
330
60
100
AcDbEntity
  8
DV1_デフォルト
  6
CONTINUOUS
 62
     7
100
AcDbLine
 10
104.803365193
 20
202.3087478422
 30
0.0
 11
104.303365193
 21
202.3087478422
 31
0.0
  0
LINE
  5
D7
330
60
100
AcDbEntity
  8
DV1_デフォルト
  6
CONTINUOUS
 62
     7
100
AcDbLine
 10
116.803365193
 20
162.9087478422
 30
0.0
 11
117.303365193
 21
162.9087478422
 31
0.0
  0
LINE
  5
D8
330
60
100
AcDbEntity
  8
DV1_デフォルト
  6
CONTINUOUS
 62
     7
100
AcDbLine
 10
117.303365193
 20
201.4087478422
 30
0.0
 11
116.803365193
 21
201.4087478422
 31
0.0
  0
LINE
  5
D9
330
60
100
AcDbEntity
  8
DV1_デフォルト
  6
CONTINUOUS
 62
     7
100
AcDbLine
 10
105.003365193
 20
203.1587478422
 30
0.0
 11
104.803365193
 21
202.9587478422
 31
0.0
  0
LINE
  5
DA
330
60
100
AcDbEntity
  8
DV1_デフォルト
  6
CONTINUOUS
 62
     7
100
AcDbLine
 10
104.803365193
 20
161.3587478422
 30
0.0
 11
105.003365193
 21
161.1587478422
 31
0.0
  0
LINE
  5
DB
330
60
100
AcDbEntity
  8
DV1_デフォルト
  6
CONTINUOUS
 62
     7
100
AcDbLine
 10
116.603365193
 20
161.1587478422
 30
0.0
 11
116.803365193
 21
161.3587478422
 31
0.0
  0
LINE
  5
DC
330
60
100
AcDbEntity
  8
DV1_デフォルト
  6
CONTINUOUS
 62
     7
100
AcDbLine
 10
116.803365193
 20
202.9587478422
 30
0.0
 11
116.603365193
 21
203.1587478422
 31
0.0
  0
LINE
  5
DD
330
60
100
AcDbEntity
  8
DV1_デフォルト
  6
CONTINUOUS
 62
     7
100
AcDbLine
 10
105.003365193
 20
161.1587478422
 30
0.0
 11
116.603365193
 21
161.1587478422
 31
0.0
  0
LINE
  5
DE
330
60
100
AcDbEntity
  8
DV1_デフォルト
  6
CONTINUOUS
 62
     7
100
AcDbLine
 10
116.603365193
 20
203.1587478422
 30
0.0
 11
105.003365193
 21
203.1587478422
 31
0.0
  0
ELLIPSE
  5
DF
330
60
100
AcDbEntity
  8
DV1_デフォルト
  6
CONTINUOUS
 62
     7
100
AcDbEllipse
 10
93.003365193
 20
164.2431569129
 30
0.0
 11
-0.8500000000000035
 21
6.676159684268004E-17
 31
0.0
210
0.0
220
0.0
230
1.0
 40
0.5
 41
0.7611199463797061
 42
2.498077160378932
  0
LINE
  5
E0
330
60
100
AcDbEntity
  8
DV1_デフォルト
  6
CONTINUOUS
 62
     7
100
AcDbLine
 10
92.3879107919
 20
163.950020477
 30
0.0
 11
92.3879107919
 21
164.0943580443
 31
0.0
  0
ELLIPSE
  5
E1
330
60
100
AcDbEntity
  8
DV1_デフォルト
  6
CONTINUOUS
 62
     7
100
AcDbEllipse
 10
93.003365193
 20
164.1565543725
 30
0.0
 11
-0.6767949192431135
 21
6.992051444546855E-15
 31
0.0
210
0.0
220
0.0
230
1.0
 40
0.5
 41
0.8235886074441411
 42
2.854667647724685
  0
LINE
  5
E2
330
60
100
AcDbEntity
  8
DV1_デフォルト
  6
CONTINUOUS
 62
     7
100
AcDbLine
 10
92.3792484734
 20
164.0918574483
 30
0.0
 11
93.1361210171
 21
164.3103477317
 31
0.0
  0
LINE
  5
E3
330
60
100
AcDbEntity
  8
DV1_デフォルト
  6
CONTINUOUS
 62
     7
100
AcDbLine
 10
92.5434200867
 20
163.9083096032
 30
0.0
 11
92.3879107919
 21
163.950020477
 31
0.0
  0
LINE
  5
E4
330
60
100
AcDbEntity
  8
DV1_デフォルト
  6
CONTINUOUS
 62
     7
100
AcDbLine
 10
93.520893976
 20
164.1904820098
 30
0.0
 11
92.5434200867
 21
163.9083096032
 31
0.0
  0
LINE
  5
E5
330
60
100
AcDbEntity
  8
DV1_デフォルト
  6
CONTINUOUS
 62
     7
100
AcDbLine
 10
130.103365193
 20
163.1587478422
 30
0.0
 11
130.103365193
 21
201.1587478422
 31
0.0
  0
LINE
  5
E6
330
60
100
AcDbEntity
  8
DV1_デフォルト
  6
CONTINUOUS
 62
     7
100
AcDbLine
 10
128.103365193
 20
161.1587478422
 30
0.0
 11
128.103365193
 21
203.1587478422
 31
0.0
  0
LINE
  5
E7
330
60
100
AcDbEntity
  8
DV1_デフォルト
  6
CONTINUOUS
 62
     7
100
AcDbLine
 10
117.5002796202
 20
161.1587478422
 30
0.0
 11
117.5002796202
 21
203.1587478422
 31
0.0
  0
LINE
  5
E8
330
60
100
AcDbEntity
  8
DV1_デフォルト
  6
CONTINUOUS
 62
     7
100
AcDbLine
 10
117.303365193
 20
161.3556622694
 30
0.0
 11
117.303365193
 21
202.9618334149
 31
0.0
  0
LINE
  5
E9
330
60
100
AcDbEntity
  8
DV1_デフォルト
  6
CONTINUOUS
 62
     7
100
AcDbLine
 10
128.103365193
 20
161.1587478422
 30
0.0
 11
130.103365193
 21
163.1587478422
 31
0.0
  0
LINE
  5
EA
330
60
100
AcDbEntity
  8
DV1_デフォルト
  6
CONTINUOUS
 62
     7
100
AcDbLine
 10
130.103365193
 20
201.1587478422
 30
0.0
 11
128.103365193
 21
203.1587478422
 31
0.0
  0
LINE
  5
EB
330
60
100
AcDbEntity
  8
DV1_デフォルト
  6
CONTINUOUS
 62
     7
100
AcDbLine
 10
117.5002796202
 20
161.1587478422
 30
0.0
 11
128.103365193
 21
161.1587478422
 31
0.0
  0
LINE
  5
EC
330
60
100
AcDbEntity
  8
DV1_デフォルト
  6
CONTINUOUS
 62
     7
100
AcDbLine
 10
128.103365193
 20
203.1587478422
 30
0.0
 11
117.5002796202
 21
203.1587478422
 31
0.0
  0
LINE
  5
ED
330
60
100
AcDbEntity
  8
DV1_デフォルト
  6
CONTINUOUS
 62
     7
100
AcDbLine
 10
117.5002796202
 20
203.1587478422
 30
0.0
 11
117.303365193
 21
202.9618334149
 31
0.0
  0
LINE
  5
EE
330
60
100
AcDbEntity
  8
DV1_デフォルト
  6
CONTINUOUS
 62
     7
100
AcDbLine
 10
117.303365193
 20
161.3556622694
 30
0.0
 11
117.5002796202
 21
161.1587478422
 31
0.0
  0
LINE
  5
EF
330
60
100
AcDbEntity
  8
DV1_デフォルト
  6
CONTINUOUS
 62
     7
100
AcDbLine
 10
140.703365193
 20
171.2087478422
 30
0.0
 11
140.703365193
 21
193.1087478422
 31
0.0
  0
LINE
  5
F0
330
60
100
AcDbEntity
  8
DV1_デフォルト
  6
CONTINUOUS
 62
     7
100
AcDbLine
 10
140.503365193
 20
171.0087478422
 30
0.0
 11
140.503365193
 21
193.3087478422
 31
0.0
  0
LINE
  5
F1
330
60
100
AcDbEntity
  8
DV1_デフォルト
  6
CONTINUOUS
 62
     7
100
AcDbLine
 10
140.503365193
 20
171.0087478422
 30
0.0
 11
140.703365193
 21
171.2087478422
 31
0.0
  0
LINE
  5
F2
330
60
100
AcDbEntity
  8
DV1_デフォルト
  6
CONTINUOUS
 62
     7
100
AcDbLine
 10
140.703365193
 20
193.1087478422
 30
0.0
 11
140.503365193
 21
193.3087478422
 31
0.0
  0
LINE
  5
F3
330
60
100
AcDbEntity
  8
DV1_デフォルト
  6
CONTINUOUS
 62
     7
100
AcDbLine
 10
138.803365193
 20
171.0087478422
 30
0.0
 11
140.503365193
 21
171.0087478422
 31
0.0
  0
LINE
  5
F4
330
60
100
AcDbEntity
  8
DV1_デフォルト
  6
CONTINUOUS
 62
     7
100
AcDbLine
 10
140.503365193
 20
193.3087478422
 30
0.0
 11
138.803365193
 21
193.3087478422
 31
0.0
  0
LINE
  5
F7
330
60
100
AcDbEntity
  8
DV1_ﾃﾞﾌｫﾙﾄ
  6
CENTER2
 62
     7
100
AcDbLine
 10
69.8617150914
 20
182.1587478422
 30
0.0
 11
141.6449694076
 21
182.1587478422
 31
0.0
  0
LINE
  5
F8
330
60
100
AcDbEntity
  8
DV1_ﾃﾞﾌｫﾙﾄ
  6
CONTINUOUS
 62
     7
100
AcDbLine
 10
113.1445615478
 20
201.4125638104
 30
0.0
 11
113.1445615478
 21
201.2520867293
 31
0.0
  0
LINE
  5
F9
330
60
100
AcDbEntity
  8
DV1_ﾃﾞﾌｫﾙﾄ
  6
CONTINUOUS
 62
     7
100
AcDbLine
 10
113.1445615478
 20
201.2520867293
 30
0.0
 11
112.8147138643
 21
201.2520867293
 31
0.0
  0
LINE
  5
FA
330
60
100
AcDbEntity
  8
DV1_ﾃﾞﾌｫﾙﾄ
  6
CONTINUOUS
 62
     7
100
AcDbLine
 10
112.8147138643
 20
201.2520867293
 30
0.0
 11
112.8147138643
 21
201.0274188157
 31
0.0
  0
LINE
  5
FB
330
60
100
AcDbEntity
  8
DV1_ﾃﾞﾌｫﾙﾄ
  6
CONTINUOUS
 62
     7
100
AcDbLine
 10
112.8147138643
 20
201.0274188157
 30
0.0
 11
113.1445615478
 21
201.0274188157
 31
0.0
  0
LINE
  5
FC
330
60
100
AcDbEntity
  8
DV1_ﾃﾞﾌｫﾙﾄ
  6
CONTINUOUS
 62
     7
100
AcDbLine
 10
113.1445615478
 20
201.0274188157
 30
0.0
 11
113.1445615478
 21
200.8027509022
 31
0.0
  0
LINE
  5
FD
330
60
100
AcDbEntity
  8
DV1_ﾃﾞﾌｫﾙﾄ
  6
CONTINUOUS
 62
     7
100
AcDbLine
 10
113.1445615478
 20
200.8027509022
 30
0.0
 11
113.5056349803
 21
200.8027509022
 31
0.0
  0
LINE
  5
FE
330
60
100
AcDbEntity
  8
DV1_ﾃﾞﾌｫﾙﾄ
  6
CONTINUOUS
 62
     7
100
AcDbLine
 10
113.5056349803
 20
200.8027509022
 30
0.0
 11
113.5056349803
 21
201.0274188157
 31
0.0
  0
LINE
  5
FF
330
60
100
AcDbEntity
  8
DV1_ﾃﾞﾌｫﾙﾄ
  6
CONTINUOUS
 62
     7
100
AcDbLine
 10
113.5056349803
 20
201.0274188157
 30
0.0
 11
113.8578148915
 21
201.0274188157
 31
0.0
  0
LINE
  5
100
330
60
100
AcDbEntity
  8
DV1_ﾃﾞﾌｫﾙﾄ
  6
CONTINUOUS
 62
     7
100
AcDbLine
 10
113.8578148915
 20
201.0274188157
 30
0.0
 11
113.8578148915
 21
201.2520867293
 31
0.0
  0
LINE
  5
101
330
60
100
AcDbEntity
  8
DV1_ﾃﾞﾌｫﾙﾄ
  6
CONTINUOUS
 62
     7
100
AcDbLine
 10
113.8578148915
 20
201.2520867293
 30
0.0
 11
113.5056349803
 21
201.2520867293
 31
0.0
  0
LINE
  5
102
330
60
100
AcDbEntity
  8
DV1_ﾃﾞﾌｫﾙﾄ
  6
CONTINUOUS
 62
     7
100
AcDbLine
 10
113.5056349803
 20
201.2520867293
 30
0.0
 11
113.5056349803
 21
201.4125638104
 31
0.0
  0
LINE
  5
103
330
60
100
AcDbEntity
  8
DV1_ﾃﾞﾌｫﾙﾄ
  6
CONTINUOUS
 62
     7
100
AcDbLine
 10
113.5056349803
 20
201.4125638104
 30
0.0
 11
113.1445615478
 21
201.4125638104
 31
0.0
  0
LINE
  5
104
330
60
100
AcDbEntity
  8
DV1_ﾃﾞﾌｫﾙﾄ
  6
CONTINUOUS
 62
     7
100
AcDbLine
 10
113.1445615478
 20
162.9049318739
 30
0.0
 11
113.1445615478
 21
163.065408955
 31
0.0
  0
LINE
  5
105
330
60
100
AcDbEntity
  8
DV1_ﾃﾞﾌｫﾙﾄ
  6
CONTINUOUS
 62
     7
100
AcDbLine
 10
113.1445615478
 20
163.065408955
 30
0.0
 11
112.8147138643
 21
163.065408955
 31
0.0
  0
LINE
  5
106
330
60
100
AcDbEntity
  8
DV1_ﾃﾞﾌｫﾙﾄ
  6
CONTINUOUS
 62
     7
100
AcDbLine
 10
112.8147138643
 20
163.065408955
 30
0.0
 11
112.8147138643
 21
163.2900768686
 31
0.0
  0
LINE
  5
107
330
60
100
AcDbEntity
  8
DV1_ﾃﾞﾌｫﾙﾄ
  6
CONTINUOUS
 62
     7
100
AcDbLine
 10
112.8147138643
 20
163.2900768686
 30
0.0
 11
113.1445615478
 21
163.2900768686
 31
0.0
  0
LINE
  5
108
330
60
100
AcDbEntity
  8
DV1_ﾃﾞﾌｫﾙﾄ
  6
CONTINUOUS
 62
     7
100
AcDbLine
 10
113.1445615478
 20
163.2900768686
 30
0.0
 11
113.1445615478
 21
163.5147447821
 31
0.0
  0
LINE
  5
109
330
60
100
AcDbEntity
  8
DV1_ﾃﾞﾌｫﾙﾄ
  6
CONTINUOUS
 62
     7
100
AcDbLine
 10
113.1445615478
 20
163.5147447821
 30
0.0
 11
113.5056349803
 21
163.5147447821
 31
0.0
  0
LINE
  5
10A
330
60
100
AcDbEntity
  8
DV1_ﾃﾞﾌｫﾙﾄ
  6
CONTINUOUS
 62
     7
100
AcDbLine
 10
113.5056349803
 20
163.5147447821
 30
0.0
 11
113.5056349803
 21
163.2900768686
 31
0.0
  0
LINE
  5
10B
330
60
100
AcDbEntity
  8
DV1_ﾃﾞﾌｫﾙﾄ
  6
CONTINUOUS
 62
     7
100
AcDbLine
 10
113.5056349803
 20
163.2900768686
 30
0.0
 11
113.8578148915
 21
163.2900768686
 31
0.0
  0
LINE
  5
10C
330
60
100
AcDbEntity
  8
DV1_ﾃﾞﾌｫﾙﾄ
  6
CONTINUOUS
 62
     7
100
AcDbLine
 10
113.8578148915
 20
163.2900768686
 30
0.0
 11
113.8578148915
 21
163.065408955
 31
0.0
  0
LINE
  5
10D
330
60
100
AcDbEntity
  8
DV1_ﾃﾞﾌｫﾙﾄ
  6
CONTINUOUS
 62
     7
100
AcDbLine
 10
113.8578148915
 20
163.065408955
 30
0.0
 11
113.5056349803
 21
163.065408955
 31
0.0
  0
LINE
  5
10E
330
60
100
AcDbEntity
  8
DV1_ﾃﾞﾌｫﾙﾄ
  6
CONTINUOUS
 62
     7
100
AcDbLine
 10
113.5056349803
 20
163.065408955
 30
0.0
 11
113.5056349803
 21
162.9049318739
 31
0.0
  0
LINE
  5
10F
330
60
100
AcDbEntity
  8
DV1_ﾃﾞﾌｫﾙﾄ
  6
CONTINUOUS
 62
     7
100
AcDbLine
 10
113.5056349803
 20
162.9049318739
 30
0.0
 11
113.1445615478
 21
162.9049318739
 31
0.0
  0
LINE
  5
110
330
60
100
AcDbEntity
  8
DV1_デフォルト
  6
CENTER2
 62
     7
100
AcDbLine
 10
136.053365193
 20
194.3587478422
 30
0.0
 11
138.603365193
 21
194.3587478422
 31
0.0
  0
LINE
  5
111
330
60
100
AcDbEntity
  8
DV1_デフォルト
  6
CENTER2
 62
     7
100
AcDbLine
 10
136.053365193
 20
169.9587478422
 30
0.0
 11
138.603365193
 21
169.9587478422
 31
0.0
  0
LINE
  5
112
330
60
100
AcDbEntity
  8
DV1_デフォルト
  6
CENTER2
 62
     7
100
AcDbLine
 10
71.003365193
 20
202.4087478422
 30
0.0
 11
72.503365193
 21
202.4087478422
 31
0.0
  0
LINE
  5
114
330
60
100
AcDbEntity
  8
DV1_AUTO_-_HIDE
  6
CONTINUOUS
 62
     7
100
AcDbLine
 10
69.7233652253
 20
202.4087478422
 30
0.0
 11
68.720068384
 21
202.4087478422
 31
0.0
  0
LINE
  5
116
330
60
100
AcDbEntity
  8
DV1_デフォルト
  6
CENTER2
 62
     7
100
AcDbLine
 10
71.003365193
 20
161.9087478422
 30
0.0
 11
72.503365193
 21
161.9087478422
 31
0.0
  0
LINE
  5
117
330
60
100
AcDbEntity
  8
DV1_デフォルト
  6
CENTER2
 62
     7
100
AcDbLine
 10
154.0971321459
 20
183.9265147951
 30
0.0
 11
150.56159824
 21
180.3909808892
 31
0.0
  0
LWPOLYLINE
  5
118
330
60
100
AcDbEntity
  8
DV1_AUTO_-_HIDE
  6
CONTINUOUS
 62
     7
100
AcDbPolyline
 90
        3
 70
     0
 43
0.0
 10
138.0033651121
 20
201.3827053542
 10
134.803365193
 20
201.9160386741
 10
138.0033651121
 20
202.449371994
  0
LWPOLYLINE
  5
119
330
60
100
AcDbEntity
  8
DV1_AUTO_-_HIDE
  6
CONTINUOUS
 62
     7
100
AcDbPolyline
 90
        3
 70
     0
 43
0.0
 10
149.1293660119
 20
201.3827053542
 10
152.3293659311
 20
201.9160386741
 10
149.1293660119
 20
202.449371994
  0
LINE
  5
11A
330
60
100
AcDbEntity
  8
DV1_AUTO_-_HIDE
  6
CONTINUOUS
 62
     7
100
AcDbLine
 10
134.803365193
 20
198.2387478098
 30
0.0
 11
134.803365193
 21
203.5160386337
 31
0.0
  0
LINE
  5
11B
330
60
100
AcDbEntity
  8
DV1_AUTO_-_HIDE
  6
CONTINUOUS
 62
     7
100
AcDbLine
 10
152.329365193
 20
183.4387478098
 30
0.0
 11
152.329365193
 21
203.5160386337
 31
0.0
  0
LINE
  5
11C
330
60
100
AcDbEntity
  8
DV1_AUTO_-_HIDE
  6
CONTINUOUS
 62
     7
100
AcDbLine
 10
134.803365193
 20
201.9160386741
 30
0.0
 11
152.3293659311
 21
201.9160386741
 31
0.0
  0
TEXT
  5
11D
330
60
100
AcDbEntity
  8
DV1_AUTO_-_HIDE
  6
CONTINUOUS
 62
     7
100
AcDbText
 10
138.3956338547
 20
202.7160386741
 30
0.0
 40
3.2
  1
17.53
  7
SEACAD_SEANSI_TTF
 11
138.3956338547
 21
205.9160386741
 31
0.0
100
AcDbText
 73
     3
  0
LINE
  5
11E
330
60
100
AcDbEntity
  8
DV1_デフォルト
  6
CENTER2
 62
     7
100
AcDbLine
 10
154.0971321459
 20
180.3909808892
 30
0.0
 11
150.56159824
 21
183.9265147951
 31
0.0
  0
ENDBLK
  5
120
330
60
100
AcDbEntity
  8
0
100
AcDbBlockEnd
  0
BLOCK
  5
12A
330
121
100
AcDbEntity
  8
0
100
AcDbBlockBegin
  2
GDIMGGROUP
 70
     0
 10
0.0
 20
0.0
 30
0.0
  3
GDIMGGROUP
  1

  0
LWPOLYLINE
  5
123
330
121
100
AcDbEntity
  8
DEFAULT
  6
CONTINUOUS
 62
   136
100
AcDbPolyline
 90
        3
 70
     0
 43
0.0
 10
52.6922856791
 20
200.2787477985
 10
52.2122856718
 20
203.1587478422
 10
51.7322856645
 20
200.2787477985
  0
LWPOLYLINE
  5
124
330
121
100
AcDbEntity
  8
DEFAULT
  6
CONTINUOUS
 62
   136
100
AcDbPolyline
 90
        3
 70
     0
 43
0.0
 10
52.6922856791
 20
164.0387484521
 10
52.2122856718
 20
161.1587484084
 10
51.7322856645
 20
164.0387484521
  0
LINE
  5
125
330
121
100
AcDbEntity
  8
DEFAULT
  6
CONTINUOUS
 62
   136
100
AcDbLine
 10
69.8513651522
 20
203.1587478422
 30
0.0
 11
50.7722856499
 21
203.1587478422
 31
0.0
  0
LINE
  5
126
330
121
100
AcDbEntity
  8
DEFAULT
  6
CONTINUOUS
 62
   136
100
AcDbLine
 10
69.8513651522
 20
161.1587478422
 30
0.0
 11
50.7722856499
 21
161.1587478422
 31
0.0
  0
LINE
  5
127
330
121
100
AcDbEntity
  8
DEFAULT
  6
CONTINUOUS
 62
   136
100
AcDbLine
 10
52.2122856718
 20
203.1587478422
 30
0.0
 11
52.2122856718
 21
161.1587484084
 31
0.0
  0
TEXT
  5
128
330
121
100
AcDbEntity
  8
DEFAULT
  6
CONTINUOUS
 62
   136
100
AcDbText
 10
51.4922856718
 20
178.2653257889
 30
0.0
 40
2.88
  1
O
 50
90.0
  7
SEACAD_SEMECA1_TTF
 11
48.6122856718
 21
178.2653257889
 31
0.0
100
AcDbText
 73
     3
  0
TEXT
  5
129
330
121
100
AcDbEntity
  8
DEFAULT
  6
CONTINUOUS
 62
   136
100
AcDbText
 10
51.4922856718
 20
181.8375363153
 30
0.0
 40
2.88
  1
42
 50
90.0
  7
SEACAD_SEANSI_TTF
 11
48.6122856718
 21
181.8375363153
 31
0.0
100
AcDbText
 73
     3
  0
ENDBLK
  5
12B
330
121
100
AcDbEntity
  8
0
100
AcDbBlockEnd
  0
BLOCK
  5
136
330
12C
100
AcDbEntity
  8
0
100
AcDbBlockBegin
  2
GDIMGGROUP1
 70
     0
 10
0.0
 20
0.0
 30
0.0
  3
GDIMGGROUP1
  1

  0
LWPOLYLINE
  5
12E
330
12C
100
AcDbEntity
  8
DEFAULT
  6
CONTINUOUS
 62
   136
100
AcDbPolyline
 90
        3
 70
     0
 43
0.0
 10
59.559300482
 20
199.5287477985
 10
59.0793004748
 20
202.4087478422
 10
58.5993004675
 20
199.5287477985
  0
LWPOLYLINE
  5
12F
330
12C
100
AcDbEntity
  8
DEFAULT
  6
CONTINUOUS
 62
   136
100
AcDbPolyline
 90
        3
 70
     0
 43
0.0
 10
59.559300482
 20
164.7887477666
 10
59.0793004748
 20
161.9087477229
 10
58.5993004675
 20
164.7887477666
  0
LINE
  5
130
330
12C
100
AcDbEntity
  8
DEFAULT
  6
CONTINUOUS
 62
   136
100
AcDbLine
 10
69.8513651522
 20
202.4087478422
 30
0.0
 11
57.6393004529
 21
202.4087478422
 31
0.0
  0
LINE
  5
131
330
12C
100
AcDbEntity
  8
DEFAULT
  6
CONTINUOUS
 62
   136
100
AcDbLine
 10
69.8513651522
 20
161.9087478422
 30
0.0
 11
57.6393004529
 21
161.9087478422
 31
0.0
  0
LINE
  5
132
330
12C
100
AcDbEntity
  8
DEFAULT
  6
CONTINUOUS
 62
   136
100
AcDbLine
 10
59.0793004748
 20
202.4087478422
 30
0.0
 11
59.0793004748
 21
161.9087477229
 31
0.0
  0
TEXT
  5
133
330
12C
100
AcDbEntity
  8
DEFAULT
  6
CONTINUOUS
 62
   136
100
AcDbText
 10
58.3593004748
 20
174.5782599777
 30
0.0
 40
2.88
  1
40.5
 50
90.0
  7
SEACAD_SEANSI_TTF
 11
55.4793004748
 21
174.5782599777
 31
0.0
100
AcDbText
 73
     3
  0
TEXT
  5
134
330
12C
100
AcDbEntity
  8
DEFAULT
  6
CONTINUOUS
 62
   136
100
AcDbText
 10
58.3593004748
 20
171.1878209533
 30
0.0
 40
2.88
  1
M
 50
90.0
  7
SEACAD_SEANSI_TTF
 11
55.4793004748
 21
171.1878209533
 31
0.0
100
AcDbText
 73
     3
  0
TEXT
  5
135
330
12C
100
AcDbEntity
  8
DEFAULT
  6
CONTINUOUS
 62
   136
100
AcDbText
 10
58.3593004748
 20
182.0662599777
 30
0.0
 40
2.88
  1
 P=0.5
 50
90.0
  7
SEACAD_SEANSI_TTF
 11
55.4793004748
 21
182.0662599777
 31
0.0
100
AcDbText
 73
     3
  0
ENDBLK
  5
137
330
12C
100
AcDbEntity
  8
0
100
AcDbBlockEnd
  0
BLOCK
  5
141
330
138
100
AcDbEntity
  8
0
100
AcDbBlockBegin
  2
GDIMGGROUP2
 70
     0
 10
0.0
 20
0.0
 30
0.0
  3
GDIMGGROUP2
  1

  0
LWPOLYLINE
  5
13A
330
138
100
AcDbEntity
  8
DEFAULT
  6
CONTINUOUS
 62
   136
100
AcDbPolyline
 90
        3
 70
     0
 43
0.0
 10
160.0021957765
 20
190.4287477985
 10
160.4821957838
 20
193.3087478422
 10
160.9621957911
 20
190.4287477985
  0
LWPOLYLINE
  5
13B
330
138
100
AcDbEntity
  8
DEFAULT
  6
CONTINUOUS
 62
   136
100
AcDbPolyline
 90
        3
 70
     0
 43
0.0
 10
160.0021957765
 20
173.8887485146
 10
160.4821957838
 20
171.008748471
 10
160.9621957911
 20
173.8887485146
  0
LINE
  5
13C
330
138
100
AcDbEntity
  8
DEFAULT
  6
CONTINUOUS
 62
   136
100
AcDbLine
 10
141.6553652337
 20
193.3087478422
 30
0.0
 11
161.9221958056
 21
193.3087478422
 31
0.0
  0
LINE
  5
13D
330
138
100
AcDbEntity
  8
DEFAULT
  6
CONTINUOUS
 62
   136
100
AcDbLine
 10
141.6553652337
 20
171.0087478422
 30
0.0
 11
161.9221958056
 21
171.0087478422
 31
0.0
  0
LINE
  5
13E
330
138
100
AcDbEntity
  8
DEFAULT
  6
CONTINUOUS
 62
   136
100
AcDbLine
 10
160.4821957838
 20
193.3087478422
 30
0.0
 11
160.4821957838
 21
171.008748471
 31
0.0
  0
TEXT
  5
13F
330
138
100
AcDbEntity
  8
DEFAULT
  6
CONTINUOUS
 62
   136
100
AcDbText
 10
159.7621957838
 20
176.7726428934
 30
0.0
 40
2.88
  1
O
 50
90.0
  7
SEACAD_SEMECA1_TTF
 11
156.8821957838
 21
176.7726428934
 31
0.0
100
AcDbText
 73
     3
  0
TEXT
  5
140
330
138
100
AcDbEntity
  8
DEFAULT
  6
CONTINUOUS
 62
   136
100
AcDbText
 10
159.7621957838
 20
180.3448534197
 30
0.0
 40
2.88
  1
22.3
 50
90.0
  7
SEACAD_SEANSI_TTF
 11
156.8821957838
 21
180.3448534197
 31
0.0
100
AcDbText
 73
     3
  0
ENDBLK
  5
142
330
138
100
AcDbEntity
  8
0
100
AcDbBlockEnd
  0
BLOCK
  5
14B
330
143
100
AcDbEntity
  8
0
100
AcDbBlockBegin
  2
GDIMGGROUP3
 70
     0
 10
0.0
 20
0.0
 30
0.0
  3
GDIMGGROUP3
  1

  0
LWPOLYLINE
  5
145
330
143
100
AcDbEntity
  8
DEFAULT
  6
CONTINUOUS
 62
   136
100
AcDbPolyline
 90
        3
 70
     0
 43
0.0
 10
167.0617416124
 20
191.9787477985
 10
167.5417416197
 20
194.8587478422
 10
168.0217416269
 20
191.9787477985
  0
LWPOLYLINE
  5
146
330
143
100
AcDbEntity
  8
DEFAULT
  6
CONTINUOUS
 62
   136
100
AcDbPolyline
 90
        3
 70
     0
 43
0.0
 10
167.0617416124
 20
172.3387481928
 10
167.5417416197
 20
169.4587481491
 10
168.0217416269
 20
172.3387481928
  0
LINE
  5
147
330
143
100
AcDbEntity
  8
DEFAULT
  6
CONTINUOUS
 62
   136
100
AcDbLine
 10
139.2553652337
 20
194.8587478422
 30
0.0
 11
168.9817416415
 21
194.8587478422
 31
0.0
  0
LINE
  5
148
330
143
100
AcDbEntity
  8
DEFAULT
  6
CONTINUOUS
 62
   136
100
AcDbLine
 10
139.2553652337
 20
169.4587478422
 30
0.0
 11
168.9817416415
 21
169.4587478422
 31
0.0
  0
LINE
  5
149
330
143
100
AcDbEntity
  8
DEFAULT
  6
CONTINUOUS
 62
   136
100
AcDbLine
 10
167.5417416197
 20
194.8587478422
 30
0.0
 11
167.5417416197
 21
169.4587481491
 31
0.0
  0
TEXT
  5
14A
330
143
100
AcDbEntity
  8
DEFAULT
  6
CONTINUOUS
 62
   136
100
AcDbText
 10
166.8217416197
 20
171.6537723859
 30
0.0
 40
2.88
  1
1-32UN-2A
 50
90.0
  7
SEACAD_SEANSI_TTF
 11
163.9417416197
 21
171.6537723859
 31
0.0
100
AcDbText
 73
     3
  0
ENDBLK
  5
14C
330
143
100
AcDbEntity
  8
0
100
AcDbBlockEnd
  0
BLOCK
  5
155
330
14D
100
AcDbEntity
  8
0
100
AcDbBlockBegin
  2
GDIMGGROUP4
 70
     0
 10
0.0
 20
0.0
 30
0.0
  3
GDIMGGROUP4
  1

  0
LWPOLYLINE
  5
14F
330
14D
100
AcDbEntity
  8
DEFAULT
  6
CONTINUOUS
 62
   136
100
AcDbPolyline
 90
        3
 70
     0
 43
0.0
 10
131.9233651493
 20
141.394668495
 10
134.803365193
 20
140.9146684877
 10
131.9233651493
 20
140.4346684805
  0
LWPOLYLINE
  5
150
330
14D
100
AcDbEntity
  8
DEFAULT
  6
CONTINUOUS
 62
   136
100
AcDbPolyline
 90
        3
 70
     0
 43
0.0
 10
73.6833621968
 20
141.394668495
 10
70.8033621531
 20
140.9146684877
 10
73.6833621968
 20
140.4346684805
  0
LINE
  5
151
330
14D
100
AcDbEntity
  8
DEFAULT
  6
CONTINUOUS
 62
   136
100
AcDbLine
 10
134.803365193
 20
166.2067478014
 30
0.0
 11
134.803365193
 21
139.4746684659
 31
0.0
  0
LINE
  5
152
330
14D
100
AcDbEntity
  8
DEFAULT
  6
CONTINUOUS
 62
   136
100
AcDbLine
 10
70.803365193
 20
160.2067478014
 30
0.0
 11
70.803365193
 21
139.4746684659
 31
0.0
  0
LINE
  5
153
330
14D
100
AcDbEntity
  8
DEFAULT
  6
CONTINUOUS
 62
   136
100
AcDbLine
 10
134.803365193
 20
140.9146684877
 30
0.0
 11
70.8033621531
 21
140.9146684877
 31
0.0
  0
TEXT
  5
154
330
14D
100
AcDbEntity
  8
DEFAULT
  6
CONTINUOUS
 62
   136
100
AcDbText
 10
100.6960465999
 20
141.6346684877
 30
0.0
 40
2.88
  1
64
  7
SEACAD_SEANSI_TTF
 11
100.6960465999
 21
144.5146684877
 31
0.0
100
AcDbText
 73
     3
  0
ENDBLK
  5
156
330
14D
100
AcDbEntity
  8
0
100
AcDbBlockEnd
  0
BLOCK
  5
15F
330
157
100
AcDbEntity
  8
0
100
AcDbBlockBegin
  2
GDIMGGROUP5
 70
     0
 10
0.0
 20
0.0
 30
0.0
  3
GDIMGGROUP5
  1

  0
LWPOLYLINE
  5
159
330
157
100
AcDbEntity
  8
DEFAULT
  6
CONTINUOUS
 62
   136
100
AcDbPolyline
 90
        3
 70
     0
 43
0.0
 10
136.5313651959
 20
156.4147666248
 10
134.803365193
 20
156.1267666243
 10
136.5313651959
 20
155.8387666238
  0
LWPOLYLINE
  5
15A
330
157
100
AcDbEntity
  8
DEFAULT
  6
CONTINUOUS
 62
   136
100
AcDbPolyline
 90
        3
 70
     0
 43
0.0
 10
137.07536538
 20
156.4147666248
 10
138.8033653829
 20
156.1267666243
 10
137.07536538
 20
155.8387666238
  0
LINE
  5
15B
330
157
100
AcDbEntity
  8
DEFAULT
  6
CONTINUOUS
 62
   136
100
AcDbLine
 10
134.803365193
 20
166.2067478014
 30
0.0
 11
134.803365193
 21
154.6867666025
 31
0.0
  0
LINE
  5
15C
330
157
100
AcDbEntity
  8
DEFAULT
  6
CONTINUOUS
 62
   136
100
AcDbLine
 10
138.803365193
 20
169.0067478014
 30
0.0
 11
138.803365193
 21
154.6867666025
 31
0.0
  0
LINE
  5
15D
330
157
100
AcDbEntity
  8
DEFAULT
  6
CONTINUOUS
 62
   136
100
AcDbLine
 10
134.803365193
 20
156.1267666243
 30
0.0
 11
138.8033653829
 21
156.1267666243
 31
0.0
  0
TEXT
  5
15E
330
157
100
AcDbEntity
  8
DEFAULT
  6
CONTINUOUS
 62
   136
100
AcDbText
 10
135.7497067514
 20
156.8467666243
 30
0.0
 40
2.88
  1
4
  7
SEACAD_SEANSI_TTF
 11
135.7497067514
 21
159.7267666243
 31
0.0
100
AcDbText
 73
     3
  0
ENDBLK
  5
160
330
157
100
AcDbEntity
  8
0
100
AcDbBlockEnd
  0
BLOCK
  5
169
330
161
100
AcDbEntity
  8
0
100
AcDbBlockBegin
  2
GDIMGGROUP6
 70
     0
 10
0.0
 20
0.0
 30
0.0
  3
GDIMGGROUP6
  1

  0
LWPOLYLINE
  5
163
330
161
100
AcDbEntity
  8
DEFAULT
  6
CONTINUOUS
 62
   136
100
AcDbPolyline
 90
        3
 70
     0
 43
0.0
 10
136.5313651959
 20
149.3066035362
 10
134.803365193
 20
149.0186035357
 10
136.5313651959
 20
148.7306035352
  0
LWPOLYLINE
  5
164
330
161
100
AcDbEntity
  8
DEFAULT
  6
CONTINUOUS
 62
   136
100
AcDbPolyline
 90
        3
 70
     0
 43
0.0
 10
138.9753654121
 20
149.3066035362
 10
140.703365415
 20
149.0186035357
 10
138.9753654121
 20
148.7306035352
  0
LINE
  5
165
330
161
100
AcDbEntity
  8
DEFAULT
  6
CONTINUOUS
 62
   136
100
AcDbLine
 10
134.803365193
 20
166.2067478014
 30
0.0
 11
134.803365193
 21
147.5786035139
 31
0.0
  0
LINE
  5
166
330
161
100
AcDbEntity
  8
DEFAULT
  6
CONTINUOUS
 62
   136
100
AcDbLine
 10
140.703365193
 20
170.0567478014
 30
0.0
 11
140.703365193
 21
147.5786035139
 31
0.0
  0
LINE
  5
167
330
161
100
AcDbEntity
  8
DEFAULT
  6
CONTINUOUS
 62
   136
100
AcDbLine
 10
134.803365193
 20
149.0186035357
 30
0.0
 11
140.703365415
 21
149.0186035357
 31
0.0
  0
TEXT
  5
168
330
161
100
AcDbEntity
  8
DEFAULT
  6
CONTINUOUS
 62
   136
100
AcDbText
 10
135.2070238406
 20
149.7386035357
 30
0.0
 40
2.88
  1
5.9
  7
SEACAD_SEANSI_TTF
 11
135.2070238406
 21
152.6186035357
 31
0.0
100
AcDbText
 73
     3
  0
ENDBLK
  5
16A
330
161
100
AcDbEntity
  8
0
100
AcDbBlockEnd
  0
BLOCK
  5
173
330
16B
100
AcDbEntity
  8
0
100
AcDbBlockBegin
  2
GDIMGGROUP7
 70
     0
 10
0.0
 20
0.0
 30
0.0
  3
GDIMGGROUP7
  1

  0
LWPOLYLINE
  5
16D
330
16B
100
AcDbEntity
  8
DEFAULT
  6
CONTINUOUS
 62
   136
100
AcDbPolyline
 90
        3
 70
     0
 43
0.0
 10
137.6833652366
 20
141.394668495
 10
134.803365193
 20
140.9146684877
 10
137.6833652366
 20
140.4346684805
  0
LWPOLYLINE
  5
16E
330
16B
100
AcDbEntity
  8
DEFAULT
  6
CONTINUOUS
 62
   136
100
AcDbPolyline
 90
        3
 70
     0
 43
0.0
 10
149.4493658874
 20
141.394668495
 10
152.3293659311
 20
140.9146684877
 10
149.4493658874
 20
140.4346684805
  0
LINE
  5
16F
330
16B
100
AcDbEntity
  8
DEFAULT
  6
CONTINUOUS
 62
   136
100
AcDbLine
 10
134.803365193
 20
166.2067478014
 30
0.0
 11
134.803365193
 21
139.4746684659
 31
0.0
  0
LINE
  5
170
330
16B
100
AcDbEntity
  8
DEFAULT
  6
CONTINUOUS
 62
   136
100
AcDbLine
 10
152.329365193
 20
181.0067478014
 30
0.0
 11
152.329365193
 21
139.4746684659
 31
0.0
  0
LINE
  5
171
330
16B
100
AcDbEntity
  8
DEFAULT
  6
CONTINUOUS
 62
   136
100
AcDbLine
 10
134.803365193
 20
140.9146684877
 30
0.0
 11
152.3293659311
 21
140.9146684877
 31
0.0
  0
TEXT
  5
172
330
16B
100
AcDbEntity
  8
DEFAULT
  6
CONTINUOUS
 62
   136
100
AcDbText
 10
137.8590484889
 20
141.6346684877
 30
0.0
 40
2.88
  1
17.526
  7
SEACAD_SEANSI_TTF
 11
137.8590484889
 21
144.5146684877
 31
0.0
100
AcDbText
 73
     3
  0
ENDBLK
  5
174
330
16B
100
AcDbEntity
  8
0
100
AcDbBlockEnd
  0
ENDSEC
  0
SECTION
  2
ENTITIES
  0
TEXT
  5
5E
330
1F
100
AcDbEntity
  8
DEFAULT
  6
CONTINUOUS
 62
     7
100
AcDbText
 10
135.8524116086
 20
80.1477867487
 30
0.0
 40
4.8
  1
FL-BC1618-9M
  7
SEACAD_SEANSI_TTF
 11
135.8524116086
 21
84.9477867487
 31
0.0
100
AcDbText
 73
     3
  0
INSERT
  5
61
330
1F
100
AcDbEntity
  8
DEFAULT
100
AcDbBlockReference
  2
SE
 10
0.0
 20
0.0
 30
0.0
  0
INSERT
  5
122
330
1F
100
AcDbEntity
  8
DEFAULT
100
AcDbBlockReference
  2
GDIMGGROUP
 10
0.0
 20
0.0
 30
0.0
  0
INSERT
  5
12D
330
1F
100
AcDbEntity
  8
DEFAULT
100
AcDbBlockReference
  2
GDIMGGROUP1
 10
0.0
 20
0.0
 30
0.0
  0
INSERT
  5
139
330
1F
100
AcDbEntity
  8
DEFAULT
100
AcDbBlockReference
  2
GDIMGGROUP2
 10
0.0
 20
0.0
 30
0.0
  0
INSERT
  5
144
330
1F
100
AcDbEntity
  8
DEFAULT
100
AcDbBlockReference
  2
GDIMGGROUP3
 10
0.0
 20
0.0
 30
0.0
  0
INSERT
  5
14E
330
1F
100
AcDbEntity
  8
DEFAULT
100
AcDbBlockReference
  2
GDIMGGROUP4
 10
0.0
 20
0.0
 30
0.0
  0
INSERT
  5
158
330
1F
100
AcDbEntity
  8
DEFAULT
100
AcDbBlockReference
  2
GDIMGGROUP5
 10
0.0
 20
0.0
 30
0.0
  0
INSERT
  5
162
330
1F
100
AcDbEntity
  8
DEFAULT
100
AcDbBlockReference
  2
GDIMGGROUP6
 10
0.0
 20
0.0
 30
0.0
  0
INSERT
  5
16C
330
1F
100
AcDbEntity
  8
DEFAULT
100
AcDbBlockReference
  2
GDIMGGROUP7
 10
0.0
 20
0.0
 30
0.0
  0
ENDSEC
  0
SECTION
  2
OBJECTS
  0
DICTIONARY
  5
C
330
0
100
AcDbDictionary
  3
ACAD_GROUP
350
D
  3
ACAD_LAYOUT
350
1A
  3
ACAD_MLEADERSTYLE
350
197
  3
ACAD_MLINESTYLE
350
17
  3
ACAD_PLOTSETTINGS
350
19
  3
ACAD_SCALELIST
350
3B
  3
ACAD_VISUALSTYLE
350
2A
  3
ACDBHEADERROUNDTRIPXREC
350
175
  3
ACDBVARIABLEDICTIONARY
350
195
  0
DICTIONARY
  5
D
102
{ACAD_REACTORS
330
C
102
}
330
C
100
AcDbDictionary
  0
DICTIONARY
  5
1A
102
{ACAD_REACTORS
330
C
102
}
330
C
100
AcDbDictionary
  0
DICTIONARY
  5
197
102
{ACAD_REACTORS
330
C
102
}
330
C
100
AcDbDictionary
  0
DICTIONARY
  5
17
102
{ACAD_REACTORS
330
C
102
}
330
C
100
AcDbDictionary
  3
STANDARD
350
18
  0
DICTIONARY
  5
19
102
{ACAD_REACTORS
330
C
102
}
330
C
100
AcDbDictionary
  0
DICTIONARY
  5
3B
102
{ACAD_REACTORS
330
C
102
}
330
C
100
AcDbDictionary
  3
A0
350
3C
  3
A1
350
3D
  3
A2
350
3E
  3
A3
350
3F
  3
A4
350
40
  3
A5
350
41
  3
A6
350
42
  3
A7
350
43
  3
A8
350
44
  3
A9
350
45
  3
B0
350
46
  3
B1
350
47
  3
B2
350
48
  3
B3
350
49
  3
B4
350
4A
  3
B5
350
4B
  3
B6
350
4C
  3
B7
350
4D
  3
B8
350
4E
  3
B9
350
4F
  3
C0
350
50
  3
C1
350
51
  3
C2
350
52
  3
C3
350
53
  3
C4
350
54
  3
C5
350
55
  3
C6
350
56
  3
C7
350
57
  3
C8
350
58
  3
C9
350
59
  3
D0
350
5A
  3
D1
350
5B
  3
D2
350
5C
  0
DICTIONARY
  5
2A
102
{ACAD_REACTORS
330
C
102
}
330
C
100
AcDbDictionary
  3
2DWIREFRAME
350
2F
  3
3D_HIDDEN
350
31
  3
3DWIREFRAME
350
30
  3
BASIC
350
32
  3
BRIGHTEN
350
36
  3
COLORCHANGE
350
3A
  3
CONCEPTUAL
350
34
  3
DIM
350
35
  3
FACEPATTERN
350
39
  3
FLAT
350
2B
  3
FLATWITHEDGES
350
2C
  3
GOURAUD
350
2D
  3
GOURAUDWITHEDGES
350
2E
  3
LINEPATTERN
350
38
  3
REALISTIC
350
33
  3
THICKEN
350
37
  0
DICTIONARY
  5
175
102
{ACAD_REACTORS
330
C
102
}
330
C
100
AcDbDictionary
  3
CEPSNTYPE
350
17E
  3
DIMSTYLEDATA
350
194
  3
FINGERPRINTGUID
350
17F
  3
HYPERLINKBASE
350
178
  3
INSUNITS
350
17D
  3
LAYOUTDICT
350
17A
  3
LWETCUNION
350
17C
  3
PLOTSETDICT
350
17B
  3
PSVPSCALE
350
181
  3
PUCSBASE
350
184
  3
PUCSORGBACK
350
18A
  3
PUCSORGBOTTOM
350
186
  3
PUCSORGFRONT
350
189
  3
PUCSORGLEFT
350
187
  3
PUCSORGRIGHT
350
188
  3
PUCSORGTOP
350
185
  3
PUCSORTHOREF
350
182
  3
PUCSORTHOVIEW
350
183
  3
STYLESHEET
350
179
  3
TSTACKALIGN
350
176
  3
TSTACKSIZE
350
177
  3
UCSBASE
350
18D
  3
UCSORGBACK
350
193
  3
UCSORGBOTTOM
350
18F
  3
UCSORGFRONT
350
192
  3
UCSORGLEFT
350
190
  3
UCSORGRIGHT
350
191
  3
UCSORGTOP
350
18E
  3
UCSORTHOREF
350
18B
  3
UCSORTHOVIEW
350
18C
  3
VERSIONGUID
350
180
  0
DICTIONARY
  5
195
102
{ACAD_REACTORS
330
C
102
}
330
C
100
AcDbDictionary
  3
CANNOSCALE
350
19A
  3
PSOLHEIGHT
350
199
  3
PSOLWIDTH
350
198
  0
MLINESTYLE
  5
18
102
{ACAD_REACTORS
330
17
102
}
330
17
100
AcDbMlineStyle
  2
Standard
 70
     0
  3

 62
   256
 51
90.0
 52
90.0
 71
     2
 49
0.5
 62
   256
  6
BYLAYER
 49
-0.5
 62
   256
  6
BYLAYER
  0
ACAD_PROXY_OBJECT
  5
3C
102
{ACAD_REACTORS
330
3B
102
}
330
3B
100
AcDbProxyObject
 90
      499
 91
      502
 93
       41
310
903313A31580
  0
ACAD_PROXY_OBJECT
  5
3D
102
{ACAD_REACTORS
330
3B
102
}
330
3B
100
AcDbProxyObject
 90
      499
 91
      502
 93
      105
310
903313A324000000000000004000
  0
ACAD_PROXY_OBJECT
  5
3E
102
{ACAD_REACTORS
330
3B
102
}
330
3B
100
AcDbProxyObject
 90
      499
 91
      502
 93
      105
310
903313A344000000000000104000
  0
ACAD_PROXY_OBJECT
  5
3F
102
{ACAD_REACTORS
330
3B
102
}
330
3B
100
AcDbProxyObject
 90
      499
 91
      502
 93
      105
310
903313A354000000000000144000
  0
ACAD_PROXY_OBJECT
  5
40
102
{ACAD_REACTORS
330
3B
102
}
330
3B
100
AcDbProxyObject
 90
      499
 91
      502
 93
      105
310
903313A384000000000000204000
  0
ACAD_PROXY_OBJECT
  5
41
102
{ACAD_REACTORS
330
3B
102
}
330
3B
100
AcDbProxyObject
 90
      499
 91
      502
 93
      113
310
904313A31304000000000000244000
  0
ACAD_PROXY_OBJECT
  5
42
102
{ACAD_REACTORS
330
3B
102
}
330
3B
100
AcDbProxyObject
 90
      499
 91
      502
 93
      113
310
904313A31364000000000000304000
  0
ACAD_PROXY_OBJECT
  5
43
102
{ACAD_REACTORS
330
3B
102
}
330
3B
100
AcDbProxyObject
 90
      499
 91
      502
 93
      113
310
904313A32304000000000000344000
  0
ACAD_PROXY_OBJECT
  5
44
102
{ACAD_REACTORS
330
3B
102
}
330
3B
100
AcDbProxyObject
 90
      499
 91
      502
 93
      113
310
904313A333040000000000003E4000
  0
ACAD_PROXY_OBJECT
  5
45
102
{ACAD_REACTORS
330
3B
102
}
330
3B
100
AcDbProxyObject
 90
      499
 91
      502
 93
      113
310
904313A34304000000000000444000
  0
ACAD_PROXY_OBJECT
  5
46
102
{ACAD_REACTORS
330
3B
102
}
330
3B
100
AcDbProxyObject
 90
      499
 91
      502
 93
      113
310
904313A35304000000000000494000
  0
ACAD_PROXY_OBJECT
  5
47
102
{ACAD_REACTORS
330
3B
102
}
330
3B
100
AcDbProxyObject
 90
      499
 91
      502
 93
      121
310
905313A3130304000000000000594000
  0
ACAD_PROXY_OBJECT
  5
48
102
{ACAD_REACTORS
330
3B
102
}
330
3B
100
AcDbProxyObject
 90
      499
 91
      502
 93
      105
310
903323A310000000000000010100
  0
ACAD_PROXY_OBJECT
  5
49
102
{ACAD_REACTORS
330
3B
102
}
330
3B
100
AcDbProxyObject
 90
      499
 91
      502
 93
      105
310
903343A310000000000000410100
  0
ACAD_PROXY_OBJECT
  5
4A
102
{ACAD_REACTORS
330
3B
102
}
330
3B
100
AcDbProxyObject
 90
      499
 91
      502
 93
      105
310
903383A310000000000000810100
  0
ACAD_PROXY_OBJECT
  5
4B
102
{ACAD_REACTORS
330
3B
102
}
330
3B
100
AcDbProxyObject
 90
      499
 91
      502
 93
      113
310
90431303A310000000000000910100
  0
ACAD_PROXY_OBJECT
  5
4C
102
{ACAD_REACTORS
330
3B
102
}
330
3B
100
AcDbProxyObject
 90
      499
 91
      502
 93
      121
310
9053130303A310000000000001650100
  0
ACAD_PROXY_OBJECT
  5
4D
102
{ACAD_REACTORS
330
3B
102
}
330
3B
100
AcDbProxyObject
 90
      499
 91
      502
 93
      257
310
90E312F31323822203D2031272D3022000000000000200FC000000000000284000
  0
ACAD_PROXY_OBJECT
  5
4E
102
{ACAD_REACTORS
330
3B
102
}
330
3B
100
AcDbProxyObject
 90
      499
 91
      502
 93
      249
310
90D312F363422203D2031272D3022000000000000240FC000000000000284000
  0
ACAD_PROXY_OBJECT
  5
4F
102
{ACAD_REACTORS
330
3B
102
}
330
3B
100
AcDbProxyObject
 90
      499
 91
      502
 93
      249
310
90D312F333222203D2031272D3022000000000000280FC000000000000284000
  0
ACAD_PROXY_OBJECT
  5
50
102
{ACAD_REACTORS
330
3B
102
}
330
3B
100
AcDbProxyObject
 90
      499
 91
      502
 93
      249
310
90D312F313622203D2031272D30220000000000002C0FC000000000000284000
  0
ACAD_PROXY_OBJECT
  5
51
102
{ACAD_REACTORS
330
3B
102
}
330
3B
100
AcDbProxyObject
 90
      499
 91
      502
 93
      249
310
90D332F333222203D2031272D30220000000000002E0FC000000000000284000
  0
ACAD_PROXY_OBJECT
  5
52
102
{ACAD_REACTORS
330
3B
102
}
330
3B
100
AcDbProxyObject
 90
      499
 91
      502
 93
      241
310
90C312F3822203D2031272D3022000000000000300FC000000000000284000
  0
ACAD_PROXY_OBJECT
  5
53
102
{ACAD_REACTORS
330
3B
102
}
330
3B
100
AcDbProxyObject
 90
      499
 91
      502
 93
      249
310
90D332F313622203D2031272D3022000000000000320FC000000000000284000
  0
ACAD_PROXY_OBJECT
  5
54
102
{ACAD_REACTORS
330
3B
102
}
330
3B
100
AcDbProxyObject
 90
      499
 91
      502
 93
      241
310
90C312F3422203D2031272D3022000000000000340FC000000000000284000
  0
ACAD_PROXY_OBJECT
  5
55
102
{ACAD_REACTORS
330
3B
102
}
330
3B
100
AcDbProxyObject
 90
      499
 91
      502
 93
      241
310
90C332F3822203D2031272D3022000000000000360FC000000000000284000
  0
ACAD_PROXY_OBJECT
  5
56
102
{ACAD_REACTORS
330
3B
102
}
330
3B
100
AcDbProxyObject
 90
      499
 91
      502
 93
      241
310
90C312F3222203D2031272D3022000000000000380FC000000000000284000
  0
ACAD_PROXY_OBJECT
  5
57
102
{ACAD_REACTORS
330
3B
102
}
330
3B
100
AcDbProxyObject
 90
      499
 91
      502
 93
      241
310
90C332F3422203D2031272D30220000000000003A0FC000000000000284000
  0
ACAD_PROXY_OBJECT
  5
58
102
{ACAD_REACTORS
330
3B
102
}
330
3B
100
AcDbProxyObject
 90
      499
 91
      502
 93
      161
310
90A3122203D2031272D30224000000000000284000
  0
ACAD_PROXY_OBJECT
  5
59
102
{ACAD_REACTORS
330
3B
102
}
330
3B
100
AcDbProxyObject
 90
      499
 91
      502
 93
      257
310
90E312D312F3222203D2031272D30220000000000003E0FC000000000000284000
  0
ACAD_PROXY_OBJECT
  5
5A
102
{ACAD_REACTORS
330
3B
102
}
330
3B
100
AcDbProxyObject
 90
      499
 91
      502
 93
      225
310
90A3322203D2031272D302200000000000002100000000000000284000
  0
ACAD_PROXY_OBJECT
  5
5B
102
{ACAD_REACTORS
330
3B
102
}
330
3B
100
AcDbProxyObject
 90
      499
 91
      502
 93
      225
310
90A3622203D2031272D302200000000000006100000000000000284000
  0
ACAD_PROXY_OBJECT
  5
5C
102
{ACAD_REACTORS
330
3B
102
}
330
3B
100
AcDbProxyObject
 90
      499
 91
      502
 93
      249
310
90D31272D3022203D2031272D30220000000000000A100000000000000284000
  0
ACAD_PROXY_OBJECT
  5
2F
102
{ACAD_REACTORS
330
2A
102
}
330
2A
100
AcDbProxyObject
 90
      499
 91
      501
 93
      436
310
42CC9915DA5C99599C985B595049028333333333333E3BF0000000000000FB0107901411070040501600405405064090741402480A0340
1001
ACAD
1000
AcDbSavedByObjectVersion
1070
     0
  0
ACAD_PROXY_OBJECT
  5
31
102
{ACAD_REACTORS
330
2A
102
}
330
2A
100
AcDbProxyObject
 90
      499
 91
      501
 93
      500
310
424CD108121A5919195B90640502408333333333333E3BF0000000000000FB01079024090700405020000000000001110200405405064090740C02480A0340
1001
ACAD
1000
AcDbSavedByObjectVersion
1070
     0
  0
ACAD_PROXY_OBJECT
  5
30
102
{ACAD_REACTORS
330
2A
102
}
330
2A
100
AcDbProxyObject
 90
      499
 91
      501
 93
      436
310
42CCD915DA5C99599C985B595059028333333333333E3BF0000000000000FB0107901411070040501600405405064090741402480A0340
1001
ACAD
1000
AcDbSavedByObjectVersion
1070
     0
  0
ACAD_PROXY_OBJECT
  5
32
102
{ACAD_REACTORS
330
2A
102
}
330
2A
100
AcDbProxyObject
 90
      499
 91
      501
 93
      388
310
4150985CDA58D07406404333333333333E3BF0000000000000FB0107A41107004050150841D405064090741402480A0350
1001
ACAD
1000
AcDbSavedByObjectVersion
1070
     0
  0
ACAD_PROXY_OBJECT
  5
36
102
{ACAD_REACTORS
330
2A
102
}
330
2A
100
AcDbProxyObject
 90
      499
 91
      501
 93
      428
310
42109C9A59DA1D195B90C409028333333333333E3BF0000000000000FB010790141107004050150841D405064090741402480A029950
1001
ACAD
1000
AcDbSavedByObjectVersion
1070
     0
  0
ACAD_PROXY_OBJECT
  5
3A
102
{ACAD_REACTORS
330
2A
102
}
330
2A
100
AcDbProxyObject
 90
      499
 91
      501
 93
      452
310
42D0DBDB1BDC90DA185B99D95104090240C333333333333E3BF0000000000000FB0108901411070040501508421405064090741402480A0350
1001
ACAD
1000
AcDbSavedByObjectVersion
1070
     0
  0
ACAD_PROXY_OBJECT
  5
34
102
{ACAD_REACTORS
330
2A
102
}
330
2A
100
AcDbProxyObject
 90
      499
 91
      501
 93
      500
310
4290DBDB98D95C1D1D585B10940D028333333333333E3BF0000000000000FB0107902409070040501000000000000111010841D405064090740C02480A0340
1001
ACAD
1000
AcDbSavedByObjectVersion
1070
     0
  0
ACAD_PROXY_OBJECT
  5
35
102
{ACAD_REACTORS
330
2A
102
}
330
2A
100
AcDbProxyObject
 90
      499
 91
      501
 93
      412
310
40D11A5B50B409028333333333333E3BF0000000000000FB010790141107004050150841D405064090741402480A02677FFFFFD0
1001
ACAD
1000
AcDbSavedByObjectVersion
1070
     0
  0
ACAD_PROXY_OBJECT
  5
39
102
{ACAD_REACTORS
330
2A
102
}
330
2A
100
AcDbProxyObject
 90
      499
 91
      501
 93
      444
310
42D19858D95C185D1D195C9B90F409028333333333333E3BF0000000000000FB010790141107004050150841D405064090741402480A0350
1001
ACAD
1000
AcDbSavedByObjectVersion
1070
     0
  0
ACAD_PROXY_OBJECT
  5
2B
102
{ACAD_REACTORS
330
2A
102
}
330
2A
100
AcDbProxyObject
 90
      499
 91
      501
 93
      388
310
41119B185D240901404333333333333E3BF0000000000000F9010740A41107004050150841D405064090741402480A1B50
1001
ACAD
1000
AcDbSavedByObjectVersion
1070
     0
  0
ACAD_PROXY_OBJECT
  5
2C
102
{ACAD_REACTORS
330
2A
102
}
330
2A
100
AcDbProxyObject
 90
      499
 91
      501
 93
      476
310
43519B185D15DA5D1A115919D95CD0140901404333333333333E3BF0000000000000F9010740901411070040501600405405064090741402480A1B50
1001
ACAD
1000
AcDbSavedByObjectVersion
1070
     0
  0
ACAD_PROXY_OBJECT
  5
2D
102
{ACAD_REACTORS
330
2A
102
}
330
2A
100
AcDbProxyObject
 90
      499
 91
      501
 93
      412
310
41D1DBDD5C985D5910240902404333333333333E3BF0000000000000F9010740A411070040501641D405064090741402480A1B50
1001
ACAD
1000
AcDbSavedByObjectVersion
1070
     0
  0
ACAD_PROXY_OBJECT
  5
2E
102
{ACAD_REACTORS
330
2A
102
}
330
2A
100
AcDbProxyObject
 90
      499
 91
      501
 93
      500
310
4411DBDD5C985D5915DA5D1A115919D95CD0340902404333333333333E3BF0000000000000F9010740901411070040501600405405064090741402480A1B50
1001
ACAD
1000
AcDbSavedByObjectVersion
1070
     0
  0
ACAD_PROXY_OBJECT
  5
38
102
{ACAD_REACTORS
330
2A
102
}
330
2A
100
AcDbProxyObject
 90
      499
 91
      501
 93
      444
310
42D31A5B995C185D1D195C9B90E409028333333333333E3BF0000000000000FB010790141107004050750841D405064090741402483A0350
1001
ACAD
1000
AcDbSavedByObjectVersion
1070
     0
  0
ACAD_PROXY_OBJECT
  5
33
102
{ACAD_REACTORS
330
2A
102
}
330
2A
100
AcDbProxyObject
 90
      499
 91
      501
 93
      420
310
425499585B1A5CDD1A58D08409028333333333333E3BF0000000000000FB01079019070040501508421405064090741402480A1B40
1001
ACAD
1000
AcDbSavedByObjectVersion
1070
     0
  0
ACAD_PROXY_OBJECT
  5
37
102
{ACAD_REACTORS
330
2A
102
}
330
2A
100
AcDbProxyObject
 90
      499
 91
      501
 93
      412
310
41D51A1A58DAD95B90D409028333333333333E3BF0000000000000FB010790141107004050150C41D405064090741402480A0350
1001
ACAD
1000
AcDbSavedByObjectVersion
1070
     0
  0
ACAD_PROXY_OBJECT
  5
17E
102
{ACAD_REACTORS
330
175
102
}
330
175
100
AcDbProxyObject
 90
      499
 91
      504
 93
       58
310
4196800000000000
  0
ACAD_PROXY_OBJECT
  5
194
102
{ACAD_REACTORS
330
175
102
}
330
175
100
AcDbProxyObject
 90
      499
 91
      504
 93
      306
310
497A00C180099114D51653117A80C040099ECB811500550044400000000000003A80C040099F40
  0
ACAD_PROXY_OBJECT
  5
17F
102
{ACAD_REACTORS
330
175
102
}
330
175
100
AcDbProxyObject
 90
      499
 91
      504
 93
      354
310
4AC0400980099ED0CD8C51908D4E4DCB4CCC4D508B4D0C8C904B4E51914E0B50514E0E4D4D0DCE0C109150DF40
  0
ACAD_PROXY_OBJECT
  5
178
102
{ACAD_REACTORS
330
175
102
}
330
175
100
AcDbProxyObject
 90
      499
 91
      504
 93
       50
310
41404000000980
  0
ACAD_PROXY_OBJECT
  5
17D
102
{ACAD_REACTORS
330
175
102
}
330
175
100
AcDbProxyObject
 90
      499
 91
      504
 93
       58
310
4196800100000000
  0
ACAD_PROXY_OBJECT
  5
17A
102
{ACAD_REACTORS
330
175
102
}
330
175
100
AcDbProxyObject
 90
      499
 91
      504
 93
       90
310
429500468000000000000000
  0
ACAD_PROXY_OBJECT
  5
17C
102
{ACAD_REACTORS
330
175
102
}
330
175
100
AcDbProxyObject
 90
      499
 91
      504
 93
       58
310
419680074A800000
  0
ACAD_PROXY_OBJECT
  5
17B
102
{ACAD_REACTORS
330
175
102
}
330
175
100
AcDbProxyObject
 90
      499
 91
      504
 93
       90
310
429500464000000000000000
  0
ACAD_PROXY_OBJECT
  5
181
102
{ACAD_REACTORS
330
175
102
}
330
175
100
AcDbProxyObject
 90
      499
 91
      504
 93
       90
310
428A00000000000000000000
  0
ACAD_PROXY_OBJECT
  5
184
102
{ACAD_REACTORS
330
175
102
}
330
175
100
AcDbProxyObject
 90
      499
 91
      504
 93
       90
310
429500400000000000000000
  0
ACAD_PROXY_OBJECT
  5
18A
102
{ACAD_REACTORS
330
175
102
}
330
175
100
AcDbProxyObject
 90
      499
 91
      504
 93
      218
310
46828000000000000000000000000000000000000000000000000000
  0
ACAD_PROXY_OBJECT
  5
186
102
{ACAD_REACTORS
330
175
102
}
330
175
100
AcDbProxyObject
 90
      499
 91
      504
 93
      218
310
46828000000000000000000000000000000000000000000000000000
  0
ACAD_PROXY_OBJECT
  5
189
102
{ACAD_REACTORS
330
175
102
}
330
175
100
AcDbProxyObject
 90
      499
 91
      504
 93
      218
310
46828000000000000000000000000000000000000000000000000000
  0
ACAD_PROXY_OBJECT
  5
187
102
{ACAD_REACTORS
330
175
102
}
330
175
100
AcDbProxyObject
 90
      499
 91
      504
 93
      218
310
46828000000000000000000000000000000000000000000000000000
  0
ACAD_PROXY_OBJECT
  5
188
102
{ACAD_REACTORS
330
175
102
}
330
175
100
AcDbProxyObject
 90
      499
 91
      504
 93
      218
310
46828000000000000000000000000000000000000000000000000000
  0
ACAD_PROXY_OBJECT
  5
185
102
{ACAD_REACTORS
330
175
102
}
330
175
100
AcDbProxyObject
 90
      499
 91
      504
 93
      218
310
46828000000000000000000000000000000000000000000000000000
  0
ACAD_PROXY_OBJECT
  5
182
102
{ACAD_REACTORS
330
175
102
}
330
175
100
AcDbProxyObject
 90
      499
 91
      504
 93
       90
310
429500400000000000000000
  0
ACAD_PROXY_OBJECT
  5
183
102
{ACAD_REACTORS
330
175
102
}
330
175
100
AcDbProxyObject
 90
      499
 91
      504
 93
       42
310
411180000000
  0
ACAD_PROXY_OBJECT
  5
179
102
{ACAD_REACTORS
330
175
102
}
330
175
100
AcDbProxyObject
 90
      499
 91
      504
 93
       50
310
41404000000980
  0
ACAD_PROXY_OBJECT
  5
176
102
{ACAD_REACTORS
330
175
102
}
330
175
100
AcDbProxyObject
 90
      499
 91
      504
 93
       58
310
4196800040000000
  0
ACAD_PROXY_OBJECT
  5
177
102
{ACAD_REACTORS
330
175
102
}
330
175
100
AcDbProxyObject
 90
      499
 91
      504
 93
       58
310
4196801180000000
  0
ACAD_PROXY_OBJECT
  5
18D
102
{ACAD_REACTORS
330
175
102
}
330
175
100
AcDbProxyObject
 90
      499
 91
      504
 93
       90
310
429500400000000000000000
  0
ACAD_PROXY_OBJECT
  5
193
102
{ACAD_REACTORS
330
175
102
}
330
175
100
AcDbProxyObject
 90
      499
 91
      504
 93
      218
310
46828000000000000000000000000000000000000000000000000000
  0
ACAD_PROXY_OBJECT
  5
18F
102
{ACAD_REACTORS
330
175
102
}
330
175
100
AcDbProxyObject
 90
      499
 91
      504
 93
      218
310
46828000000000000000000000000000000000000000000000000000
  0
ACAD_PROXY_OBJECT
  5
192
102
{ACAD_REACTORS
330
175
102
}
330
175
100
AcDbProxyObject
 90
      499
 91
      504
 93
      218
310
46828000000000000000000000000000000000000000000000000000
  0
ACAD_PROXY_OBJECT
  5
190
102
{ACAD_REACTORS
330
175
102
}
330
175
100
AcDbProxyObject
 90
      499
 91
      504
 93
      218
310
46828000000000000000000000000000000000000000000000000000
  0
ACAD_PROXY_OBJECT
  5
191
102
{ACAD_REACTORS
330
175
102
}
330
175
100
AcDbProxyObject
 90
      499
 91
      504
 93
      218
310
46828000000000000000000000000000000000000000000000000000
  0
ACAD_PROXY_OBJECT
  5
18E
102
{ACAD_REACTORS
330
175
102
}
330
175
100
AcDbProxyObject
 90
      499
 91
      504
 93
      218
310
46828000000000000000000000000000000000000000000000000000
  0
ACAD_PROXY_OBJECT
  5
18B
102
{ACAD_REACTORS
330
175
102
}
330
175
100
AcDbProxyObject
 90
      499
 91
      504
 93
       90
310
429500400000000000000000
  0
ACAD_PROXY_OBJECT
  5
18C
102
{ACAD_REACTORS
330
175
102
}
330
175
100
AcDbProxyObject
 90
      499
 91
      504
 93
       42
310
411180000000
  0
ACAD_PROXY_OBJECT
  5
180
102
{ACAD_REACTORS
330
175
102
}
330
175
100
AcDbProxyObject
 90
      499
 91
      504
 93
      354
310
4AC0400980099ED19051508C50CCCC8B514C0C4E4B4C4C510D4B4E4C8E508B4C0C10CC11118C8D4D9150CD1F40
  0
DICTIONARYVAR
  5
19A
102
{ACAD_REACTORS
330
195
102
}
330
195
100
DictionaryVariables
280
     0
  1
1:1
  0
DICTIONARYVAR
  5
199
102
{ACAD_REACTORS
330
195
102
}
330
195
100
DictionaryVariables
280
     0
  1
80.000000
  0
DICTIONARYVAR
  5
198
102
{ACAD_REACTORS
330
195
102
}
330
195
100
DictionaryVariables
280
     0
  1
5.000000
  0
ENDSEC
  0
EOF
